  0
SECTION
  2
ENTITIES
  0
LINE
  8
0
 10
4826.623
 20
1575.234
 30
0.0
 11
4916.623
 21
1501.234
 31
0.0
  0
LINE
  8
0
 10
4916.623
 20
1501.234
 30
0.0
 11
4916.623
 21
1321.234
 31
0.0
  0
LINE
  8
0
 10
4916.623
 20
1321.234
 30
0.0
 11
4826.623
 21
1247.234
 31
0.0
  0
LINE
  8
0
 10
4826.623
 20
1247.234
 30
0.0
 11
4826.623
 21
1067.234
 31
0.0
  0
CIRCLE
  8
0
 10
1000
 20
7000
 30
0.0
 40
100
  0
CIRCLE
  8
0
 10
1500
 20
7000
 30
0.0
 40
100
  0
CIRCLE
  8
0
 10
100
 20
100
 30
0.0
 40
125
  0
CIRCLE
  8
0
 10
200
 20
200
 30
0.0
 40
200
  0
CIRCLE
  8
0
 10
300
 20
300
 30
0.0
 40
200
  0
CIRCLE
  8
0
 10
350
 20
350
 30
0.0
 40
200
  0
CIRCLE
  8
0
 10
360
 20
360
 30
0.0
 40
200
  0
CIRCLE
  8
0
 10
370
 20
370
 30
0.0
 40
200
  0
ENDSEC
  0
EOF
