  0
SECTION
  2
ENTITIES
  0
LINE
  8
0
 10
4608.597
 20
1665.389
 30
0.0
 11
4608.597
 21
1565.389
 31
0.0
  0
LINE
  8
0
 10
4608.597
 20
1565.389
 30
0.0
 11
4928.597
 21
1411.388
 31
0.0
  0
LINE
  8
0
 10
4928.597
 20
1411.388
 30
0.0
 11
4928.597
 21
1311.388
 31
0.0
  0
LINE
  8
0
 10
4928.597
 20
1311.388
 30
0.0
 11
4608.597
 21
1157.389
 31
0.0
  0
CIRCLE
  8
0
 10
1000
 20
7000
 30
0.0
 40
100
  0
CIRCLE
  8
0
 10
1500
 20
8000
 30
0.0
 40
100
  0
CIRCLE
  8
0
 10
2000
 20
7000
 30
0.0
 40
100
  0
CIRCLE
  8
0
 10
100
 20
100
 30
0.0
 40
125
  0
CIRCLE
  8
0
 10
200
 20
200
 30
0.0
 40
200
  0
CIRCLE
  8
0
 10
300
 20
300
 30
0.0
 40
200
  0
CIRCLE
  8
0
 10
350
 20
350
 30
0.0
 40
200
  0
CIRCLE
  8
0
 10
360
 20
360
 30
0.0
 40
200
  0
CIRCLE
  8
0
 10
370
 20
370
 30
0.0
 40
200
  0
ENDSEC
  0
EOF
