  0
SECTION
  2
ENTITIES
  0
LINE
  8
0
 10
4910.862
 20
1521.83
 30
0.0
 11
4910.862
 21
1331.83
 31
0.0
  0
ARC
  8
0
 10
5172.822
 20
1045.835
 30
0.0
 40
387.8424
 50
132.4894
 51
227.5125
  0
LINE
  8
0
 10
4910.862
 20
759.831
 30
0.0
 11
4910.862
 21
569.8311
 31
0.0
  0
ARC
  8
0
 10
4648.9
 20
283.8278
 30
0.0
 40
387.8424
 50
312.4892
 51
47.51229
  0
CIRCLE
  8
0
 10
1000
 20
7000
 30
0.0
 40
100
  0
CIRCLE
  8
0
 10
1000
 20
8000
 30
0.0
 40
100
  0
CIRCLE
  8
0
 10
1500
 20
7000
 30
0.0
 40
100
  0
CIRCLE
  8
0
 10
1500
 20
8000
 30
0.0
 40
100
  0
CIRCLE
  8
0
 10
100
 20
100
 30
0.0
 40
125
  0
CIRCLE
  8
0
 10
200
 20
200
 30
0.0
 40
200
  0
CIRCLE
  8
0
 10
300
 20
300
 30
0.0
 40
200
  0
CIRCLE
  8
0
 10
350
 20
350
 30
0.0
 40
200
  0
CIRCLE
  8
0
 10
360
 20
360
 30
0.0
 40
200
  0
CIRCLE
  8
0
 10
370
 20
370
 30
0.0
 40
200
  0
ENDSEC
  0
EOF
