  0
SECTION
  2
ENTITIES
  0
ARC
  8
0
 10
5089.352
 20
2397.61
 30
0.0
 40
317.4999
 50
180
 51
216.8699
  0
ARC
  8
0
 10
4581.349
 20
2016.61
 30
0.0
 40
317.4999
 50
0
 51
36.8699
  0
ARC
  8
0
 10
5216.349
 20
2016.61
 30
0.0
 40
317.4999
 50
180
 51
216.8699
  0
ARC
  8
0
 10
4708.351
 20
1635.609
 30
0.0
 40
317.4999
 50
0
 51
36.8699
  0
ARC
  8
0
 10
4708.351
 20
1635.609
 30
0.0
 40
317.4999
 50
323.1301
 51
0
  0
ARC
  8
0
 10
5216.349
 20
1254.61
 30
0.0
 40
317.4999
 50
143.1301
 51
180
  0
ARC
  8
0
 10
4581.349
 20
1254.61
 30
0.0
 40
317.4999
 50
323.1301
 51
0
  0
ARC
  8
0
 10
5089.352
 20
873.6102
 30
0.0
 40
317.4999
 50
143.1301
 51
180
  0
CIRCLE
  8
0
 10
1000
 20
7000
 30
0.0
 40
100
  0
CIRCLE
  8
0
 10
1000
 20
8000
 30
0.0
 40
100
  0
CIRCLE
  8
0
 10
1500
 20
7000
 30
0.0
 40
100
  0
CIRCLE
  8
0
 10
1500
 20
8000
 30
0.0
 40
100
  0
CIRCLE
  8
0
 10
2000
 20
7000
 30
0.0
 40
100
  0
CIRCLE
  8
0
 10
2000
 20
8000
 30
0.0
 40
100
  0
CIRCLE
  8
0
 10
100
 20
100
 30
0.0
 40
125
  0
CIRCLE
  8
0
 10
200
 20
200
 30
0.0
 40
200
  0
CIRCLE
  8
0
 10
300
 20
300
 30
0.0
 40
200
  0
CIRCLE
  8
0
 10
350
 20
350
 30
0.0
 40
200
  0
CIRCLE
  8
0
 10
360
 20
360
 30
0.0
 40
200
  0
CIRCLE
  8
0
 10
370
 20
370
 30
0.0
 40
200
  0
ENDSEC
  0
EOF
