  0
SECTION
  2
ENTITIES
  0
LINE
  8
0
 10
4888.852
 20
2739.609
 30
0.0
 11
5079.35
 21
2357.608
 31
0.0
  0
ARC
  8
0
 10
5324.54
 20
2167.609
 30
0.0
 40
310.192
 50
142.2278
 51
217.7721
  0
LINE
  8
0
 10
5079.35
 20
1977.609
 30
0.0
 11
4888.852
 21
1595.61
 31
0.0
  0
ARC
  8
0
 10
4643.661
 20
1405.61
 30
0.0
 40
310.192
 50
322.2278
 51
37.77217
  0
CIRCLE
  8
0
 10
1000
 20
7000
 30
0.0
 40
100
  0
CIRCLE
  8
0
 10
1500
 20
8000
 30
0.0
 40
100
  0
CIRCLE
  8
0
 10
2000
 20
7000
 30
0.0
 40
100
  0
CIRCLE
  8
0
 10
100
 20
100
 30
0.0
 40
125
  0
CIRCLE
  8
0
 10
200
 20
200
 30
0.0
 40
200
  0
CIRCLE
  8
0
 10
300
 20
300
 30
0.0
 40
200
  0
CIRCLE
  8
0
 10
350
 20
350
 30
0.0
 40
200
  0
CIRCLE
  8
0
 10
360
 20
360
 30
0.0
 40
200
  0
CIRCLE
  8
0
 10
370
 20
370
 30
0.0
 40
200
  0
ENDSEC
  0
EOF
