  0
SECTION
  2
ENTITIES
  0
ARC
  8
0
 10
4770.302
 20
1662.84
 30
0.0
 40
156.5694
 50
0
 51
54.20773
  0
ARC
  8
0
 10
5083.442
 20
1662.84
 30
0.0
 40
156.5694
 50
180
 51
234.2077
  0
ARC
  8
0
 10
5083.442
 20
1408.841
 30
0.0
 40
156.5694
 50
125.7922
 51
180
  0
ARC
  8
0
 10
4770.302
 20
1408.841
 30
0.0
 40
156.5694
 50
305.7923
 51
360
  0
CIRCLE
  8
0
 10
1000
 20
7000
 30
0.0
 40
100
  0
CIRCLE
  8
0
 10
1000
 20
8000
 30
0.0
 40
100
  0
CIRCLE
  8
0
 10
1500
 20
7000
 30
0.0
 40
100
  0
CIRCLE
  8
0
 10
1500
 20
8000
 30
0.0
 40
100
  0
CIRCLE
  8
0
 10
100
 20
100
 30
0.0
 40
125
  0
CIRCLE
  8
0
 10
200
 20
200
 30
0.0
 40
200
  0
CIRCLE
  8
0
 10
300
 20
300
 30
0.0
 40
200
  0
CIRCLE
  8
0
 10
350
 20
350
 30
0.0
 40
200
  0
CIRCLE
  8
0
 10
360
 20
360
 30
0.0
 40
200
  0
CIRCLE
  8
0
 10
370
 20
370
 30
0.0
 40
200
  0
ENDSEC
  0
EOF
