  0
SECTION
  2
ENTITIES
  0
LINE
  8
0
 10
4699.107
 20
2260.26
 30
0.0
 11
4699.107
 21
2006.259
 31
0.0
  0
LINE
  8
0
 10
4699.107
 20
2006.259
 30
0.0
 11
5144.107
 21
1498.26
 31
0.0
  0
LINE
  8
0
 10
5144.107
 20
1498.26
 30
0.0
 11
5144.107
 21
1244.26
 31
0.0
  0
LINE
  8
0
 10
5144.107
 20
1244.26
 30
0.0
 11
4699.107
 21
736.2596
 31
0.0
  0
CIRCLE
  8
0
 10
1000
 20
7000
 30
0.0
 40
100
  0
CIRCLE
  8
0
 10
2000
 20
8000
 30
0.0
 40
100
  0
CIRCLE
  8
0
 10
3000
 20
7000
 30
0.0
 40
100
  0
CIRCLE
  8
0
 10
100
 20
100
 30
0.0
 40
125
  0
CIRCLE
  8
0
 10
200
 20
200
 30
0.0
 40
200
  0
CIRCLE
  8
0
 10
300
 20
300
 30
0.0
 40
200
  0
CIRCLE
  8
0
 10
350
 20
350
 30
0.0
 40
200
  0
CIRCLE
  8
0
 10
360
 20
360
 30
0.0
 40
200
  0
CIRCLE
  8
0
 10
370
 20
370
 30
0.0
 40
200
  0
ENDSEC
  0
EOF
