  0
SECTION
  2
ENTITIES
  0
ARC
  8
0
 10
4887.602
 20
2522.109
 30
0.0
 40
88.71345
 50
176.5419
 51
248.0313
  0
LINE
  8
0
 10
4854.408
 20
2439.839
 30
0.0
 11
4997.68
 21
2361.079
 31
0.0
  0
ARC
  8
0
 10
4964.501
 20
2278.809
 30
0.0
 40
88.71345
 50
356.5419
 51
68.03128
  0
ARC
  8
0
 10
5141.601
 20
2268.109
 30
0.0
 40
88.71345
 50
176.5419
 51
248.0313
  0
LINE
  8
0
 10
5108.412
 20
2185.839
 30
0.0
 11
5251.679
 21
2107.08
 31
0.0
  0
ARC
  8
0
 10
5218.5
 20
2024.809
 30
0.0
 40
88.71345
 50
356.5419
 51
68.03128
  0
ARC
  8
0
 10
5395.599
 20
2014.11
 30
0.0
 40
88.71345
 50
176.5419
 51
248.0313
  0
LINE
  8
0
 10
5362.42
 20
1931.839
 30
0.0
 11
5505.692
 21
1853.08
 31
0.0
  0
ARC
  8
0
 10
5472.499
 20
1770.809
 30
0.0
 40
88.71345
 50
356.5419
 51
68.03128
  0
ARC
  8
0
 10
5472.499
 20
1760.11
 30
0.0
 40
88.71345
 50
291.9687
 51
3.45804
  0
LINE
  8
0
 10
5505.692
 20
1677.839
 30
0.0
 11
5362.42
 21
1599.08
 31
0.0
  0
ARC
  8
0
 10
5395.599
 20
1516.809
 30
0.0
 40
88.71345
 50
111.9687
 51
183.458
  0
ARC
  8
0
 10
5218.5
 20
1506.11
 30
0.0
 40
88.71345
 50
291.9687
 51
3.45804
  0
LINE
  8
0
 10
5251.679
 20
1423.839
 30
0.0
 11
5108.412
 21
1345.08
 31
0.0
  0
ARC
  8
0
 10
5141.601
 20
1262.811
 30
0.0
 40
88.71345
 50
111.9687
 51
183.458
  0
ARC
  8
0
 10
4964.501
 20
1252.11
 30
0.0
 40
88.71345
 50
291.9687
 51
3.45804
  0
LINE
  8
0
 10
4997.68
 20
1169.841
 30
0.0
 11
4854.408
 21
1091.08
 31
0.0
  0
ARC
  8
0
 10
4887.602
 20
1008.811
 30
0.0
 40
88.71345
 50
111.9687
 51
183.458
  0
CIRCLE
  8
0
 10
1000
 20
7000
 30
0.0
 40
100
  0
CIRCLE
  8
0
 10
1000
 20
8000
 30
0.0
 40
100
  0
CIRCLE
  8
0
 10
2500
 20
7000
 30
0.0
 40
100
  0
CIRCLE
  8
0
 10
2500
 20
8000
 30
0.0
 40
100
  0
CIRCLE
  8
0
 10
100
 20
100
 30
0.0
 40
125
  0
CIRCLE
  8
0
 10
200
 20
200
 30
0.0
 40
200
  0
CIRCLE
  8
0
 10
300
 20
300
 30
0.0
 40
200
  0
CIRCLE
  8
0
 10
350
 20
350
 30
0.0
 40
200
  0
CIRCLE
  8
0
 10
360
 20
360
 30
0.0
 40
200
  0
CIRCLE
  8
0
 10
370
 20
370
 30
0.0
 40
200
  0
ENDSEC
  0
EOF
