  0
SECTION
  2
ENTITIES
  0
ARC
  8
0
 10
5062.469
 20
1931.19
 30
0.0
 40
152.3678
 50
97.60555
 51
195.0143
  0
ARC
  8
0
 10
4994.681
 20
1701.209
 30
0.0
 40
206.3748
 50
112.6199
 51
180
  0
ARC
  8
0
 10
4994.681
 20
1701.209
 30
0.0
 40
206.3748
 50
180
 51
247.3802
  0
ARC
  8
0
 10
5062.469
 20
1471.24
 30
0.0
 40
152.3678
 50
164.9857
 51
262.3944
  0
ARC
  8
0
 10
5022.142
 20
1169.19
 30
0.0
 40
152.3678
 50
344.9857
 51
82.39443
  0
ARC
  8
0
 10
5089.93
 20
939.2106
 30
0.0
 40
206.3748
 50
360
 51
67.38012
  0
ARC
  8
0
 10
5089.93
 20
939.2106
 30
0.0
 40
206.3748
 50
292.6198
 51
0
  0
ARC
  8
0
 10
5022.142
 20
709.2401
 30
0.0
 40
152.3678
 50
277.6056
 51
15.01432
  0
CIRCLE
  8
0
 10
1000
 20
7000
 30
0.0
 40
100
  0
CIRCLE
  8
0
 10
1000
 20
8000
 30
0.0
 40
100
  0
CIRCLE
  8
0
 10
2000
 20
7000
 30
0.0
 40
100
  0
CIRCLE
  8
0
 10
2000
 20
8000
 30
0.0
 40
100
  0
CIRCLE
  8
0
 10
100
 20
100
 30
0.0
 40
125
  0
CIRCLE
  8
0
 10
200
 20
200
 30
0.0
 40
200
  0
CIRCLE
  8
0
 10
300
 20
300
 30
0.0
 40
200
  0
CIRCLE
  8
0
 10
350
 20
350
 30
0.0
 40
200
  0
CIRCLE
  8
0
 10
360
 20
360
 30
0.0
 40
200
  0
CIRCLE
  8
0
 10
370
 20
370
 30
0.0
 40
200
  0
ENDSEC
  0
EOF
