  0
SECTION
  2
ENTITIES
  0
ARC
  8
0
 10
5316.491
 20
2343.21
 30
0.0
 40
103.1876
 50
180
 51
247.3802
  0
ARC
  8
0
 10
5237.121
 20
2152.711
 30
0.0
 40
103.1876
 50
0
 51
67.38012
  0
ARC
  8
0
 10
5443.489
 20
2152.711
 30
0.0
 40
103.1876
 50
180
 51
247.3802
  0
ARC
  8
0
 10
5364.108
 20
1962.21
 30
0.0
 40
103.1876
 50
0
 51
67.38012
  0
ARC
  8
0
 10
5364.108
 20
1962.21
 30
0.0
 40
103.1876
 50
292.6198
 51
0
  0
ARC
  8
0
 10
5443.489
 20
1771.711
 30
0.0
 40
103.1876
 50
112.6199
 51
180
  0
ARC
  8
0
 10
5237.121
 20
1771.711
 30
0.0
 40
103.1876
 50
292.6198
 51
0
  0
ARC
  8
0
 10
5316.491
 20
1581.21
 30
0.0
 40
103.1876
 50
112.6199
 51
180
  0
ARC
  8
0
 10
5110.109
 20
1581.21
 30
0.0
 40
103.1876
 50
292.6198
 51
0
  0
ARC
  8
0
 10
5189.489
 20
1390.71
 30
0.0
 40
103.1876
 50
112.6199
 51
180
  0
ARC
  8
0
 10
4983.122
 20
1390.71
 30
0.0
 40
103.1876
 50
292.6198
 51
0
  0
ARC
  8
0
 10
5062.492
 20
1200.21
 30
0.0
 40
103.1876
 50
112.6199
 51
180
  0
ARC
  8
0
 10
5062.492
 20
1200.21
 30
0.0
 40
103.1876
 50
180
 51
247.3802
  0
ARC
  8
0
 10
4983.122
 20
1009.71
 30
0.0
 40
103.1876
 50
0
 51
67.38012
  0
ARC
  8
0
 10
5189.489
 20
1009.71
 30
0.0
 40
103.1876
 50
180
 51
247.3802
  0
ARC
  8
0
 10
5110.109
 20
819.2101
 30
0.0
 40
103.1876
 50
0
 51
67.38012
  0
CIRCLE
  8
0
 10
1000
 20
7000
 30
0.0
 40
100
  0
CIRCLE
  8
0
 10
1000
 20
8000
 30
0.0
 40
100
  0
CIRCLE
  8
0
 10
2000
 20
7000
 30
0.0
 40
100
  0
CIRCLE
  8
0
 10
2000
 20
8000
 30
0.0
 40
100
  0
CIRCLE
  8
0
 10
3000
 20
7000
 30
0.0
 40
100
  0
CIRCLE
  8
0
 10
3000
 20
8000
 30
0.0
 40
100
  0
CIRCLE
  8
0
 10
4000
 20
8000
 30
0.0
 40
100
  0
CIRCLE
  8
0
 10
4500
 20
7000
 30
0.0
 40
100
  0
CIRCLE
  8
0
 10
4500
 20
8000
 30
0.0
 40
100
  0
CIRCLE
  8
0
 10
5000
 20
7000
 30
0.0
 40
100
  0
CIRCLE
  8
0
 10
5000
 20
8000
 30
0.0
 40
100
  0
CIRCLE
  8
0
 10
5500
 20
7000
 30
0.0
 40
100
  0
CIRCLE
  8
0
 10
5500
 20
8000
 30
0.0
 40
100
  0
CIRCLE
  8
0
 10
6000
 20
7000
 30
0.0
 40
100
  0
CIRCLE
  8
0
 10
6000
 20
8000
 30
0.0
 40
100
  0
CIRCLE
  8
0
 10
6500
 20
7000
 30
0.0
 40
100
  0
CIRCLE
  8
0
 10
6500
 20
8000
 30
0.0
 40
100
  0
CIRCLE
  8
0
 10
100
 20
100
 30
0.0
 40
125
  0
CIRCLE
  8
0
 10
200
 20
200
 30
0.0
 40
200
  0
CIRCLE
  8
0
 10
300
 20
300
 30
0.0
 40
200
  0
CIRCLE
  8
0
 10
350
 20
350
 30
0.0
 40
200
  0
CIRCLE
  8
0
 10
360
 20
360
 30
0.0
 40
200
  0
CIRCLE
  8
0
 10
370
 20
370
 30
0.0
 40
200
  0
ENDSEC
  0
EOF
