  0
SECTION
  2
ENTITIES
  0
ARC
  8
0
 10
5239.391
 20
2776.688
 30
0.0
 40
206.4454
 50
180
 51
247.3802
  0
ARC
  8
0
 10
5080.587
 20
2395.558
 30
0.0
 40
206.4454
 50
0
 51
67.38012
  0
ARC
  8
0
 10
5493.477
 20
2395.558
 30
0.0
 40
206.4454
 50
180
 51
247.3802
  0
ARC
  8
0
 10
5334.672
 20
2014.429
 30
0.0
 40
206.4454
 50
0
 51
67.38012
  0
ARC
  8
0
 10
5334.672
 20
2014.429
 30
0.0
 40
206.4454
 50
292.6198
 51
360
  0
ARC
  8
0
 10
5493.477
 20
1633.558
 30
0.0
 40
206.4454
 50
112.6199
 51
180
  0
ARC
  8
0
 10
5080.587
 20
1633.558
 30
0.0
 40
206.4454
 50
292.6198
 51
360
  0
ARC
  8
0
 10
5239.391
 20
1252.688
 30
0.0
 40
206.4454
 50
112.6199
 51
180
  0
CIRCLE
  8
0
 10
1000
 20
7000
 30
0.0
 40
100
  0
CIRCLE
  8
0
 10
1000
 20
8000
 30
0.0
 40
100
  0
CIRCLE
  8
0
 10
2000
 20
7000
 30
0.0
 40
100
  0
CIRCLE
  8
0
 10
2000
 20
8000
 30
0.0
 40
100
  0
CIRCLE
  8
0
 10
100
 20
100
 30
0.0
 40
125
  0
CIRCLE
  8
0
 10
200
 20
200
 30
0.0
 40
200
  0
CIRCLE
  8
0
 10
300
 20
300
 30
0.0
 40
200
  0
CIRCLE
  8
0
 10
350
 20
350
 30
0.0
 40
200
  0
CIRCLE
  8
0
 10
360
 20
360
 30
0.0
 40
200
  0
CIRCLE
  8
0
 10
370
 20
370
 30
0.0
 40
200
  0
ENDSEC
  0
EOF
