  0
SECTION
  2
ENTITIES
  0
LINE
  8
0
 10
5037.661
 20
1747.11
 30
0.0
 11
5037.661
 21
1617.11
 31
0.0
  0
LINE
  8
0
 10
5037.661
 20
1617.11
 30
0.0
 11
5101.162
 21
1555.11
 31
0.0
  0
LINE
  8
0
 10
5101.162
 20
1555.11
 30
0.0
 11
5228.159
 21
1555.11
 31
0.0
  0
LINE
  8
0
 10
5228.159
 20
1555.11
 30
0.0
 11
5101.162
 21
1555.11
 31
0.0
  0
LINE
  8
0
 10
5101.162
 20
1555.11
 30
0.0
 11
5037.661
 21
1493.11
 31
0.0
  0
LINE
  8
0
 10
5037.661
 20
1493.11
 30
0.0
 11
5037.661
 21
1363.11
 31
0.0
  0
LINE
  8
0
 10
5037.661
 20
1363.11
 30
0.0
 11
4974.16
 21
1301.11
 31
0.0
  0
LINE
  8
0
 10
4974.16
 20
1301.11
 30
0.0
 11
5037.661
 21
1239.11
 31
0.0
  0
CIRCLE
  8
0
 10
1000
 20
7000
 30
0.0
 40
100
  0
CIRCLE
  8
0
 10
1500
 20
8000
 30
0.0
 40
100
  0
CIRCLE
  8
0
 10
2000
 20
7000
 30
0.0
 40
100
  0
CIRCLE
  8
0
 10
100
 20
100
 30
0.0
 40
125
  0
CIRCLE
  8
0
 10
200
 20
200
 30
0.0
 40
200
  0
CIRCLE
  8
0
 10
300
 20
300
 30
0.0
 40
200
  0
CIRCLE
  8
0
 10
350
 20
350
 30
0.0
 40
200
  0
CIRCLE
  8
0
 10
360
 20
360
 30
0.0
 40
200
  0
CIRCLE
  8
0
 10
370
 20
370
 30
0.0
 40
200
  0
ENDSEC
  0
EOF
