  0
SECTION
  2
ENTITIES
  0
ARC
  8
0
 10
5115.44
 20
1547.924
 30
0.0
 40
63.49997
 50
89.99999
 51
270
  0
ARC
  8
0
 10
5115.44
 20
1547.924
 30
0.0
 40
63.49997
 50
270
 51
0
  0
ARC
  8
0
 10
5115.44
 20
1547.924
 30
0.0
 40
63.49997
 50
270
 51
0
  0
ARC
  8
0
 10
5051.94
 20
1484.424
 30
0.0
 40
63.49997
 50
180
 51
360
  0
ARC
  8
0
 10
4924.94
 20
1484.424
 30
0.0
 40
63.49997
 50
360
 51
270
  0
ARC
  8
0
 10
4924.94
 20
1357.424
 30
0.0
 40
63.49997
 50
180
 51
89.99999
  0
ARC
  8
0
 10
4797.94
 20
1357.424
 30
0.0
 40
63.49997
 50
360
 51
270
  0
ARC
  8
0
 10
4797.94
 20
1230.424
 30
0.0
 40
63.49997
 50
180
 51
89.99999
  0
ARC
  8
0
 10
4670.941
 20
1230.424
 30
0.0
 40
63.49997
 50
360
 51
270
  0
ARC
  8
0
 10
4670.941
 20
1103.424
 30
0.0
 40
63.49997
 50
180
 51
89.99999
  0
ARC
  8
0
 10
4543.941
 20
1103.424
 30
0.0
 40
63.49997
 50
360
 51
270
  0
ARC
  8
0
 10
4543.941
 20
976.4243
 30
0.0
 40
63.49997
 50
180
 51
89.99999
  0
ARC
  8
0
 10
4416.941
 20
976.4243
 30
0.0
 40
63.49997
 50
360
 51
180
  0
ARC
  8
0
 10
4353.44
 20
912.9244
 30
0.0
 40
63.49997
 50
89.99999
 51
180
  0
ARC
  8
0
 10
4353.44
 20
912.9244
 30
0.0
 40
63.49997
 50
89.99999
 51
180
  0
ARC
  8
0
 10
4353.44
 20
912.9244
 30
0.0
 40
63.49997
 50
360
 51
89.99999
  0
ARC
  8
0
 10
4353.44
 20
912.9244
 30
0.0
 40
63.49997
 50
270
 51
360
  0
ARC
  8
0
 10
4416.941
 20
849.4244
 30
0.0
 40
63.49997
 50
180
 51
360
  0
ARC
  8
0
 10
4416.941
 20
849.4244
 30
0.0
 40
63.49997
 50
360
 51
89.99999
  0
ARC
  8
0
 10
4416.941
 20
849.4244
 30
0.0
 40
63.49997
 50
360
 51
89.99999
  0
ARC
  8
0
 10
4480.44
 20
785.9244
 30
0.0
 40
63.49997
 50
270
 51
89.99999
  0
ARC
  8
0
 10
4480.44
 20
658.9244
 30
0.0
 40
63.49997
 50
89.99999
 51
270
  0
ARC
  8
0
 10
4480.44
 20
658.9244
 30
0.0
 40
63.49997
 50
270
 51
0
  0
ARC
  8
0
 10
4607.441
 20
658.9244
 30
0.0
 40
63.49997
 50
270
 51
180
  0
ARC
  8
0
 10
4607.441
 20
531.9244
 30
0.0
 40
63.49997
 50
89.99999
 51
270
  0
ARC
  8
0
 10
4607.441
 20
531.9244
 30
0.0
 40
63.49997
 50
270
 51
0
  0
ARC
  8
0
 10
4734.44
 20
531.9244
 30
0.0
 40
63.49997
 50
270
 51
180
  0
ARC
  8
0
 10
4734.44
 20
404.9245
 30
0.0
 40
63.49997
 50
89.99999
 51
270
  0
ARC
  8
0
 10
4734.44
 20
404.9245
 30
0.0
 40
63.49997
 50
270
 51
0
  0
ARC
  8
0
 10
4861.44
 20
404.9245
 30
0.0
 40
63.49997
 50
270
 51
180
  0
ARC
  8
0
 10
4861.44
 20
277.9245
 30
0.0
 40
63.49997
 50
89.99999
 51
270
  0
ARC
  8
0
 10
4861.44
 20
277.9245
 30
0.0
 40
63.49997
 50
270
 51
0
  0
ARC
  8
0
 10
4988.441
 20
277.9245
 30
0.0
 40
63.49997
 50
270
 51
180
  0
ARC
  8
0
 10
4988.441
 20
150.9246
 30
0.0
 40
63.49997
 50
89.99999
 51
270
  0
ARC
  8
0
 10
5051.94
 20
87.4246
 30
0.0
 40
63.49997
 50
180
 51
270
  0
ARC
  8
0
 10
5051.94
 20
87.4246
 30
0.0
 40
63.49997
 50
180
 51
270
  0
ARC
  8
0
 10
5051.94
 20
87.4246
 30
0.0
 40
63.49997
 50
360
 51
180
  0
CIRCLE
  8
0
 10
1000
 20
7000
 30
0.0
 40
100
  0
CIRCLE
  8
0
 10
2500
 20
8000
 30
0.0
 40
100
  0
CIRCLE
  8
0
 10
4000
 20
7000
 30
0.0
 40
100
  0
CIRCLE
  8
0
 10
100
 20
100
 30
0.0
 40
125
  0
CIRCLE
  8
0
 10
200
 20
200
 30
0.0
 40
200
  0
CIRCLE
  8
0
 10
300
 20
300
 30
0.0
 40
200
  0
CIRCLE
  8
0
 10
350
 20
350
 30
0.0
 40
200
  0
CIRCLE
  8
0
 10
360
 20
360
 30
0.0
 40
200
  0
CIRCLE
  8
0
 10
370
 20
370
 30
0.0
 40
200
  0
ENDSEC
  0
EOF
