  0
SECTION
  2
ENTITIES
  0
ARC
  8
0
 10
5090.962
 20
1800.22
 30
0.0
 40
75.10349
 50
122.2746
 51
237.7255
  0
ARC
  8
0
 10
5010.752
 20
1673.219
 30
0.0
 40
75.10349
 50
302.2745
 51
57.72543
  0
ARC
  8
0
 10
5090.962
 20
1546.22
 30
0.0
 40
75.10349
 50
122.2746
 51
237.7255
  0
ARC
  8
0
 10
5010.752
 20
1419.219
 30
0.0
 40
75.10349
 50
302.2745
 51
57.72543
  0
CIRCLE
  8
0
 10
1000
 20
7000
 30
0.0
 40
100
  0
CIRCLE
  8
0
 10
1500
 20
7000
 30
0.0
 40
100
  0
CIRCLE
  8
0
 10
100
 20
100
 30
0.0
 40
125
  0
CIRCLE
  8
0
 10
200
 20
200
 30
0.0
 40
200
  0
CIRCLE
  8
0
 10
300
 20
300
 30
0.0
 40
200
  0
CIRCLE
  8
0
 10
350
 20
350
 30
0.0
 40
200
  0
CIRCLE
  8
0
 10
360
 20
360
 30
0.0
 40
200
  0
CIRCLE
  8
0
 10
370
 20
370
 30
0.0
 40
200
  0
ENDSEC
  0
EOF
