  0
SECTION
  2
ENTITIES
  0
ARC
  8
0
 10
5053.22
 20
1813.05
 30
0.0
 40
50.16249
 50
6.017024
 51
90.48615
  0
LINE
  8
0
 10
5103.098
 20
1818.31
 30
0.0
 11
5103.098
 21
1718.311
 31
0.0
  0
ARC
  8
0
 10
5153.029
 20
1723.22
 30
0.0
 40
50.16249
 50
185.6204
 51
270.0894
  0
ARC
  8
0
 10
5153.029
 20
1622.892
 30
0.0
 40
50.16249
 50
89.91055
 51
174.3797
  0
LINE
  8
0
 10
5103.098
 20
1627.811
 30
0.0
 11
5103.098
 21
1527.812
 31
0.0
  0
ARC
  8
0
 10
5053.146
 20
1532.373
 30
0.0
 40
50.16249
 50
270.3072
 51
354.7763
  0
CIRCLE
  8
0
 10
1000
 20
7000
 30
0.0
 40
100
  0
CIRCLE
  8
0
 10
1500
 20
8000
 30
0.0
 40
100
  0
CIRCLE
  8
0
 10
2000
 20
7000
 30
0.0
 40
100
  0
CIRCLE
  8
0
 10
100
 20
100
 30
0.0
 40
125
  0
CIRCLE
  8
0
 10
200
 20
200
 30
0.0
 40
200
  0
CIRCLE
  8
0
 10
300
 20
300
 30
0.0
 40
200
  0
CIRCLE
  8
0
 10
350
 20
350
 30
0.0
 40
200
  0
CIRCLE
  8
0
 10
360
 20
360
 30
0.0
 40
200
  0
CIRCLE
  8
0
 10
370
 20
370
 30
0.0
 40
200
  0
ENDSEC
  0
EOF
