  0
SECTION
  2
ENTITIES
  0
LINE
  8
0
 10
4515.449
 20
1421.955
 30
0.0
 11
4515.449
 21
1117.955
 31
0.0
  0
LINE
  8
0
 10
4515.449
 20
1117.955
 30
0.0
 11
4430.782
 21
1117.955
 31
0.0
  0
LINE
  8
0
 10
4430.782
 20
1117.955
 30
0.0
 11
4430.782
 21
1371.955
 31
0.0
  0
LINE
  8
0
 10
4430.782
 20
1371.955
 30
0.0
 11
4346.115
 21
1371.955
 31
0.0
  0
LINE
  8
0
 10
4346.115
 20
1371.955
 30
0.0
 11
4346.115
 21
813.9546
 31
0.0
  0
LINE
  8
0
 10
4346.115
 20
813.9546
 30
0.0
 11
4430.782
 21
813.9546
 31
0.0
  0
LINE
  8
0
 10
4430.782
 20
813.9546
 30
0.0
 11
4430.782
 21
1067.955
 31
0.0
  0
LINE
  8
0
 10
4430.782
 20
1067.955
 30
0.0
 11
4515.449
 21
1067.955
 31
0.0
  0
LINE
  8
0
 10
4515.449
 20
1067.955
 30
0.0
 11
4515.449
 21
813.9546
 31
0.0
  0
CIRCLE
  8
0
 10
1000
 20
8000
 30
0.0
 40
100
  0
CIRCLE
  8
0
 10
1500
 20
8000
 30
0.0
 40
100
  0
CIRCLE
  8
0
 10
2000
 20
8000
 30
0.0
 40
100
  0
CIRCLE
  8
0
 10
2500
 20
8000
 30
0.0
 40
100
  0
CIRCLE
  8
0
 10
100
 20
100
 30
0.0
 40
125
  0
CIRCLE
  8
0
 10
200
 20
200
 30
0.0
 40
200
  0
CIRCLE
  8
0
 10
300
 20
300
 30
0.0
 40
200
  0
CIRCLE
  8
0
 10
350
 20
350
 30
0.0
 40
200
  0
CIRCLE
  8
0
 10
360
 20
360
 30
0.0
 40
200
  0
CIRCLE
  8
0
 10
370
 20
370
 30
0.0
 40
200
  0
ENDSEC
  0
EOF
