  0
SECTION
  2
ENTITIES
  0
LINE
  8
0
 10
127
 20
127
 30
0.0
 11
254
 21
7.629395E-06
 31
0.0
  0
LINE
  8
0
 10
254
 20
7.629395E-06
 30
0.0
 11
381
 21
-127
 31
0.0
  0
LINE
  8
0
 10
381
 20
-127
 30
0.0
 11
508
 21
-254
 31
0.0
  0
LINE
  8
0
 10
508
 20
-254
 30
0.0
 11
635
 21
-381
 31
0.0
  0
LINE
  8
0
 10
635
 20
-381
 30
0.0
 11
762
 21
-508
 31
0.0
  0
LINE
  8
0
 10
762
 20
-508
 30
0.0
 11
889
 21
-635
 31
0.0
  0
LINE
  8
0
 10
889
 20
-635
 30
0.0
 11
1016
 21
-508
 31
0.0
  0
LINE
  8
0
 10
1016
 20
-508
 30
0.0
 11
1143
 21
-381
 31
0.0
  0
LINE
  8
0
 10
1143
 20
-381
 30
0.0
 11
1270
 21
-508
 31
0.0
  0
LINE
  8
0
 10
1270
 20
-508
 30
0.0
 11
1143
 21
-635
 31
0.0
  0
LINE
  8
0
 10
1143
 20
-635
 30
0.0
 11
1016
 21
-762
 31
0.0
  0
LINE
  8
0
 10
1016
 20
-762
 30
0.0
 11
889
 21
-889
 31
0.0
  0
LINE
  8
0
 10
889
 20
-889
 30
0.0
 11
762
 21
-1016
 31
0.0
  0
LINE
  8
0
 10
762
 20
-1016
 30
0.0
 11
635
 21
-1143
 31
0.0
  0
LINE
  8
0
 10
635
 20
-1143
 30
0.0
 11
508
 21
-1270
 31
0.0
  0
LINE
  8
0
 10
508
 20
-1270
 30
0.0
 11
635
 21
-1397
 31
0.0
  0
LINE
  8
0
 10
635
 20
-1397
 30
0.0
 11
762
 21
-1270
 31
0.0
  0
LINE
  8
0
 10
762
 20
-1270
 30
0.0
 11
889
 21
-1143
 31
0.0
  0
LINE
  8
0
 10
889
 20
-1143
 30
0.0
 11
1016
 21
-1016
 31
0.0
  0
LINE
  8
0
 10
1016
 20
-1016
 30
0.0
 11
1143
 21
-889
 31
0.0
  0
LINE
  8
0
 10
1143
 20
-889
 30
0.0
 11
1270
 21
-762
 31
0.0
  0
LINE
  8
0
 10
1270
 20
-762
 30
0.0
 11
1397
 21
-635
 31
0.0
  0
LINE
  8
0
 10
1397
 20
-635
 30
0.0
 11
1524
 21
-762
 31
0.0
  0
LINE
  8
0
 10
1524
 20
-762
 30
0.0
 11
1397
 21
-889
 31
0.0
  0
LINE
  8
0
 10
1397
 20
-889
 30
0.0
 11
1270
 21
-1016
 31
0.0
  0
LINE
  8
0
 10
1270
 20
-1016
 30
0.0
 11
1143
 21
-1143
 31
0.0
  0
LINE
  8
0
 10
1143
 20
-1143
 30
0.0
 11
1016
 21
-1270
 31
0.0
  0
LINE
  8
0
 10
1016
 20
-1270
 30
0.0
 11
889
 21
-1397
 31
0.0
  0
LINE
  8
0
 10
889
 20
-1397
 30
0.0
 11
762
 21
-1524
 31
0.0
  0
LINE
  8
0
 10
762
 20
-1524
 30
0.0
 11
889
 21
-1651
 31
0.0
  0
LINE
  8
0
 10
889
 20
-1651
 30
0.0
 11
1016
 21
-1524
 31
0.0
  0
LINE
  8
0
 10
1016
 20
-1524
 30
0.0
 11
1143
 21
-1397
 31
0.0
  0
LINE
  8
0
 10
1143
 20
-1397
 30
0.0
 11
1270
 21
-1270
 31
0.0
  0
LINE
  8
0
 10
1270
 20
-1270
 30
0.0
 11
1397
 21
-1143
 31
0.0
  0
LINE
  8
0
 10
1397
 20
-1143
 30
0.0
 11
1524
 21
-1016
 31
0.0
  0
LINE
  8
0
 10
1524
 20
-1016
 30
0.0
 11
1651
 21
-889
 31
0.0
  0
LINE
  8
0
 10
1651
 20
-889
 30
0.0
 11
1524
 21
-762
 31
0.0
  0
LINE
  8
0
 10
1524
 20
-762
 30
0.0
 11
1397
 21
-635
 31
0.0
  0
LINE
  8
0
 10
1397
 20
-635
 30
0.0
 11
1270
 21
-508
 31
0.0
  0
LINE
  8
0
 10
1270
 20
-508
 30
0.0
 11
1143
 21
-381
 31
0.0
  0
LINE
  8
0
 10
1143
 20
-381
 30
0.0
 11
1016
 21
-508
 31
0.0
  0
LINE
  8
0
 10
1016
 20
-508
 30
0.0
 11
889
 21
-635
 31
0.0
  0
LINE
  8
0
 10
889
 20
-635
 30
0.0
 11
762
 21
-762
 31
0.0
  0
LINE
  8
0
 10
762
 20
-762
 30
0.0
 11
635
 21
-635
 31
0.0
  0
LINE
  8
0
 10
635
 20
-635
 30
0.0
 11
508
 21
-508
 31
0.0
  0
LINE
  8
0
 10
508
 20
-508
 30
0.0
 11
381
 21
-381
 31
0.0
  0
LINE
  8
0
 10
381
 20
-381
 30
0.0
 11
254
 21
-254
 31
0.0
  0
LINE
  8
0
 10
254
 20
-254
 30
0.0
 11
127
 21
-127
 31
0.0
  0
LINE
  8
0
 10
127
 20
-127
 30
0.0
 11
7.629395E-06
 21
7.629395E-06
 31
0.0
  0
LINE
  8
0
 10
7.629395E-06
 20
7.629395E-06
 30
0.0
 11
-127
 21
-127
 31
0.0
  0
LINE
  8
0
 10
-127
 20
-127
 30
0.0
 11
7.629395E-06
 21
-254
 31
0.0
  0
LINE
  8
0
 10
7.629395E-06
 20
-254
 30
0.0
 11
127
 21
-381
 31
0.0
  0
LINE
  8
0
 10
127
 20
-381
 30
0.0
 11
254
 21
-508
 31
0.0
  0
LINE
  8
0
 10
254
 20
-508
 30
0.0
 11
381
 21
-635
 31
0.0
  0
LINE
  8
0
 10
381
 20
-635
 30
0.0
 11
508
 21
-762
 31
0.0
  0
LINE
  8
0
 10
508
 20
-762
 30
0.0
 11
635
 21
-889
 31
0.0
  0
LINE
  8
0
 10
635
 20
-889
 30
0.0
 11
762
 21
-762
 31
0.0
  0
LINE
  8
0
 10
762
 20
-762
 30
0.0
 11
635
 21
-889
 31
0.0
  0
LINE
  8
0
 10
635
 20
-889
 30
0.0
 11
508
 21
-1016
 31
0.0
  0
LINE
  8
0
 10
508
 20
-1016
 30
0.0
 11
381
 21
-889
 31
0.0
  0
LINE
  8
0
 10
381
 20
-889
 30
0.0
 11
254
 21
-762
 31
0.0
  0
LINE
  8
0
 10
254
 20
-762
 30
0.0
 11
127
 21
-635
 31
0.0
  0
LINE
  8
0
 10
127
 20
-635
 30
0.0
 11
7.629395E-06
 21
-508
 31
0.0
  0
LINE
  8
0
 10
7.629395E-06
 20
-508
 30
0.0
 11
-127
 21
-381
 31
0.0
  0
LINE
  8
0
 10
-127
 20
-381
 30
0.0
 11
-254
 21
-254
 31
0.0
  0
LINE
  8
0
 10
-254
 20
-254
 30
0.0
 11
-381
 21
-381
 31
0.0
  0
LINE
  8
0
 10
-381
 20
-381
 30
0.0
 11
-254
 21
-508
 31
0.0
  0
LINE
  8
0
 10
-254
 20
-508
 30
0.0
 11
-127
 21
-635
 31
0.0
  0
LINE
  8
0
 10
-127
 20
-635
 30
0.0
 11
7.629395E-06
 21
-762
 31
0.0
  0
LINE
  8
0
 10
7.629395E-06
 20
-762
 30
0.0
 11
127
 21
-889
 31
0.0
  0
LINE
  8
0
 10
127
 20
-889
 30
0.0
 11
254
 21
-1016
 31
0.0
  0
LINE
  8
0
 10
254
 20
-1016
 30
0.0
 11
381
 21
-1143
 31
0.0
  0
LINE
  8
0
 10
381
 20
-1143
 30
0.0
 11
508
 21
-1016
 31
0.0
  0
LINE
  8
0
 10
508
 20
-1016
 30
0.0
 11
381
 21
-1143
 31
0.0
  0
LINE
  8
0
 10
381
 20
-1143
 30
0.0
 11
254
 21
-1016
 31
0.0
  0
LINE
  8
0
 10
254
 20
-1016
 30
0.0
 11
127
 21
-889
 31
0.0
  0
CIRCLE
  8
0
 10
1000
 20
7000
 30
0.0
 40
100
  0
CIRCLE
  8
0
 10
4000
 20
7000
 30
0.0
 40
100
  0
CIRCLE
  8
0
 10
100
 20
100
 30
0.0
 40
125
  0
CIRCLE
  8
0
 10
200
 20
200
 30
0.0
 40
200
  0
CIRCLE
  8
0
 10
300
 20
300
 30
0.0
 40
200
  0
CIRCLE
  8
0
 10
350
 20
350
 30
0.0
 40
200
  0
CIRCLE
  8
0
 10
360
 20
360
 30
0.0
 40
200
  0
CIRCLE
  8
0
 10
370
 20
370
 30
0.0
 40
200
  0
ENDSEC
  0
EOF
