  0
SECTION
  2
ENTITIES
  0
LINE
  8
0
 10
0
 20
254
 30
0.0
 11
127
 21
254
 31
0.0
  0
LINE
  8
0
 10
127
 20
254
 30
0.0
 11
254
 21
254
 31
0.0
  0
LINE
  8
0
 10
254
 20
254
 30
0.0
 11
254
 21
127
 31
0.0
  0
LINE
  8
0
 10
254
 20
127
 30
0.0
 11
127
 21
127
 31
0.0
  0
LINE
  8
0
 10
127
 20
127
 30
0.0
 11
127
 21
254
 31
0.0
  0
LINE
  8
0
 10
127
 20
254
 30
0.0
 11
127
 21
127
 31
0.0
  0
LINE
  8
0
 10
127
 20
127
 30
0.0
 11
127
 21
0
 31
0.0
  0
LINE
  8
0
 10
127
 20
0
 30
0.0
 11
127
 21
127
 31
0.0
  0
LINE
  8
0
 10
127
 20
127
 30
0.0
 11
0
 21
127
 31
0.0
  0
LINE
  8
0
 10
0
 20
127
 30
0.0
 11
0
 21
0
 31
0.0
  0
CIRCLE
  8
0
 10
1000
 20
7000
 30
0.0
 40
100
  0
CIRCLE
  8
0
 10
1500
 20
7000
 30
0.0
 40
100
  0
CIRCLE
  8
0
 10
100
 20
100
 30
0.0
 40
125
  0
CIRCLE
  8
0
 10
200
 20
200
 30
0.0
 40
200
  0
CIRCLE
  8
0
 10
300
 20
300
 30
0.0
 40
200
  0
CIRCLE
  8
0
 10
350
 20
350
 30
0.0
 40
200
  0
CIRCLE
  8
0
 10
360
 20
360
 30
0.0
 40
200
  0
CIRCLE
  8
0
 10
370
 20
370
 30
0.0
 40
200
  0
ENDSEC
  0
EOF
