  0
SECTION
  2
ENTITIES
  0
ARC
  8
0
 10
5275.109
 20
2252.256
 30
0.0
 40
127
 50
0
 51
89.99999
  0
ARC
  8
0
 10
5275.109
 20
2252.256
 30
0.0
 40
127
 50
0
 51
89.99999
  0
ARC
  8
0
 10
5275.109
 20
2252.256
 30
0.0
 40
127
 50
89.99999
 51
180
  0
ARC
  8
0
 10
5275.109
 20
2252.256
 30
0.0
 40
127
 50
180
 51
270
  0
ARC
  8
0
 10
5148.109
 20
2125.255
 30
0.0
 40
127
 50
180
 51
0
  0
ARC
  8
0
 10
5148.109
 20
2125.255
 30
0.0
 40
127
 50
89.99999
 51
180
  0
ARC
  8
0
 10
5148.109
 20
2125.255
 30
0.0
 40
127
 50
89.99999
 51
180
  0
ARC
  8
0
 10
5021.107
 20
1998.254
 30
0.0
 40
127
 50
89.99999
 51
270
  0
ARC
  8
0
 10
5021.107
 20
1744.254
 30
0.0
 40
127
 50
180
 51
89.99999
  0
ARC
  8
0
 10
4767.108
 20
1744.254
 30
0.0
 40
127
 50
0
 51
270
  0
ARC
  8
0
 10
4767.108
 20
1490.259
 30
0.0
 40
127
 50
270
 51
89.99999
  0
ARC
  8
0
 10
4640.106
 20
1363.258
 30
0.0
 40
127
 50
360
 51
89.99999
  0
ARC
  8
0
 10
4513.106
 20
1490.259
 30
0.0
 40
127
 50
0
 51
270
  0
ARC
  8
0
 10
4640.106
 20
1363.258
 30
0.0
 40
127
 50
89.99999
 51
180
  0
ARC
  8
0
 10
4640.106
 20
1363.258
 30
0.0
 40
127
 50
89.99999
 51
180
  0
ARC
  8
0
 10
4513.106
 20
1236.257
 30
0.0
 40
127
 50
0
 51
89.99999
  0
ARC
  8
0
 10
4640.106
 20
1363.258
 30
0.0
 40
127
 50
270
 51
360
  0
ARC
  8
0
 10
4640.106
 20
1363.258
 30
0.0
 40
127
 50
270
 51
360
  0
ARC
  8
0
 10
4513.106
 20
1236.257
 30
0.0
 40
127
 50
270
 51
0
  0
ARC
  8
0
 10
4513.106
 20
1236.257
 30
0.0
 40
127
 50
180
 51
270
  0
ARC
  8
0
 10
4513.106
 20
1236.257
 30
0.0
 40
127
 50
180
 51
270
  0
ARC
  8
0
 10
4640.106
 20
1109.256
 30
0.0
 40
127
 50
180
 51
0
  0
ARC
  8
0
 10
4894.107
 20
1109.256
 30
0.0
 40
127
 50
270
 51
180
  0
ARC
  8
0
 10
4894.107
 20
855.2557
 30
0.0
 40
127
 50
89.99999
 51
0
  0
ARC
  8
0
 10
5148.109
 20
855.2557
 30
0.0
 40
127
 50
0
 51
180
  0
CIRCLE
  8
0
 10
1000
 20
7000
 30
0.0
 40
100
  0
CIRCLE
  8
0
 10
2500
 20
8000
 30
0.0
 40
100
  0
CIRCLE
  8
0
 10
4000
 20
7000
 30
0.0
 40
100
  0
CIRCLE
  8
0
 10
100
 20
100
 30
0.0
 40
125
  0
CIRCLE
  8
0
 10
200
 20
200
 30
0.0
 40
200
  0
CIRCLE
  8
0
 10
300
 20
300
 30
0.0
 40
200
  0
CIRCLE
  8
0
 10
350
 20
350
 30
0.0
 40
200
  0
CIRCLE
  8
0
 10
360
 20
360
 30
0.0
 40
200
  0
CIRCLE
  8
0
 10
370
 20
370
 30
0.0
 40
200
  0
ENDSEC
  0
EOF
