  0
SECTION
  2
ENTITIES
  0
LINE
  8
0
 10
762
 20
169.3333
 30
0.0
 11
762
 21
84.66666
 31
0.0
  0
LINE
  8
0
 10
762
 20
84.66666
 30
0.0
 11
0
 21
84.66666
 31
0.0
  0
LINE
  8
0
 10
0
 20
84.66666
 30
0.0
 11
0
 21
0
 31
0.0
  0
LINE
  8
0
 10
0
 20
0
 30
0.0
 11
762
 21
0
 31
0.0
  0
LINE
  8
0
 10
762
 20
0
 30
0.0
 11
762
 21
-84.66666
 31
0.0
  0
LINE
  8
0
 10
762
 20
-84.66666
 30
0.0
 11
0
 21
-84.66666
 31
0.0
  0
LINE
  8
0
 10
0
 20
-84.66666
 30
0.0
 11
0
 21
-169.3333
 31
0.0
  0
LINE
  8
0
 10
0
 20
-169.3333
 30
0.0
 11
762
 21
-169.3333
 31
0.0
  0
LINE
  8
0
 10
762
 20
-169.3333
 30
0.0
 11
762
 21
-254
 31
0.0
  0
LINE
  8
0
 10
762
 20
-254
 30
0.0
 11
0
 21
-254
 31
0.0
  0
LINE
  8
0
 10
0
 20
-254
 30
0.0
 11
0
 21
-338.6667
 31
0.0
  0
LINE
  8
0
 10
0
 20
-338.6667
 30
0.0
 11
762
 21
-338.6667
 31
0.0
  0
LINE
  8
0
 10
762
 20
-338.6667
 30
0.0
 11
762
 21
-423.3333
 31
0.0
  0
LINE
  8
0
 10
762
 20
-423.3333
 30
0.0
 11
0
 21
-423.3333
 31
0.0
  0
LINE
  8
0
 10
0
 20
-423.3333
 30
0.0
 11
0
 21
-508
 31
0.0
  0
LINE
  8
0
 10
0
 20
-508
 30
0.0
 11
762
 21
-508
 31
0.0
  0
LINE
  8
0
 10
762
 20
-508
 30
0.0
 11
762
 21
-592.6667
 31
0.0
  0
LINE
  8
0
 10
762
 20
-592.6667
 30
0.0
 11
0
 21
-592.6667
 31
0.0
  0
LINE
  8
0
 10
0
 20
-592.6667
 30
0.0
 11
0
 21
-677.3333
 31
0.0
  0
LINE
  8
0
 10
0
 20
-677.3333
 30
0.0
 11
84.66666
 21
-677.3333
 31
0.0
  0
LINE
  8
0
 10
84.66666
 20
-677.3333
 30
0.0
 11
84.66666
 21
169.3333
 31
0.0
  0
LINE
  8
0
 10
84.66666
 20
169.3333
 30
0.0
 11
169.3333
 21
169.3333
 31
0.0
  0
LINE
  8
0
 10
169.3333
 20
169.3333
 30
0.0
 11
169.3333
 21
-677.3333
 31
0.0
  0
LINE
  8
0
 10
169.3333
 20
-677.3333
 30
0.0
 11
254
 21
-677.3333
 31
0.0
  0
LINE
  8
0
 10
254
 20
-677.3333
 30
0.0
 11
254
 21
169.3333
 31
0.0
  0
LINE
  8
0
 10
254
 20
169.3333
 30
0.0
 11
338.6667
 21
169.3333
 31
0.0
  0
LINE
  8
0
 10
338.6667
 20
169.3333
 30
0.0
 11
338.6667
 21
-677.3333
 31
0.0
  0
LINE
  8
0
 10
338.6667
 20
-677.3333
 30
0.0
 11
423.3333
 21
-677.3333
 31
0.0
  0
LINE
  8
0
 10
423.3333
 20
-677.3333
 30
0.0
 11
423.3333
 21
169.3333
 31
0.0
  0
LINE
  8
0
 10
423.3333
 20
169.3333
 30
0.0
 11
508
 21
169.3333
 31
0.0
  0
LINE
  8
0
 10
508
 20
169.3333
 30
0.0
 11
508
 21
-677.3333
 31
0.0
  0
LINE
  8
0
 10
508
 20
-677.3333
 30
0.0
 11
592.6667
 21
-677.3333
 31
0.0
  0
LINE
  8
0
 10
592.6667
 20
-677.3333
 30
0.0
 11
592.6667
 21
169.3333
 31
0.0
  0
LINE
  8
0
 10
592.6667
 20
169.3333
 30
0.0
 11
677.3333
 21
169.3333
 31
0.0
  0
LINE
  8
0
 10
677.3333
 20
169.3333
 30
0.0
 11
677.3333
 21
-677.3333
 31
0.0
  0
LINE
  8
0
 10
677.3333
 20
-677.3333
 30
0.0
 11
762
 21
-677.3333
 31
0.0
  0
CIRCLE
  8
0
 10
1000
 20
7000
 30
0.0
 40
100
  0
CIRCLE
  8
0
 10
2500
 20
7000
 30
0.0
 40
100
  0
CIRCLE
  8
0
 10
100
 20
100
 30
0.0
 40
125
  0
CIRCLE
  8
0
 10
200
 20
200
 30
0.0
 40
200
  0
CIRCLE
  8
0
 10
300
 20
300
 30
0.0
 40
200
  0
CIRCLE
  8
0
 10
350
 20
350
 30
0.0
 40
200
  0
CIRCLE
  8
0
 10
360
 20
360
 30
0.0
 40
200
  0
CIRCLE
  8
0
 10
370
 20
370
 30
0.0
 40
200
  0
ENDSEC
  0
EOF
