  0
SECTION
  2
ENTITIES
  0
LINE
  8
0
 10
4837.925
 20
1832.019
 30
0.0
 11
5091.816
 21
1832.019
 31
0.0
  0
LINE
  8
0
 10
5091.816
 20
1832.019
 30
0.0
 11
5322.737
 21
1762.046
 31
0.0
  0
LINE
  8
0
 10
5322.737
 20
1762.046
 30
0.0
 11
5068.836
 21
1762.046
 31
0.0
  0
LINE
  8
0
 10
5068.836
 20
1762.046
 30
0.0
 11
5068.836
 21
1592.112
 31
0.0
  0
LINE
  8
0
 10
5068.836
 20
1592.112
 30
0.0
 11
5322.737
 21
1592.112
 31
0.0
  0
LINE
  8
0
 10
5322.737
 20
1592.112
 30
0.0
 11
5091.816
 21
1522.139
 31
0.0
  0
LINE
  8
0
 10
5091.816
 20
1522.139
 30
0.0
 11
4837.925
 21
1522.139
 31
0.0
  0
CIRCLE
  8
0
 10
1000
 20
7000
 30
0.0
 40
100
  0
CIRCLE
  8
0
 10
1500
 20
7000
 30
0.0
 40
100
  0
CIRCLE
  8
0
 10
100
 20
100
 30
0.0
 40
125
  0
CIRCLE
  8
0
 10
200
 20
200
 30
0.0
 40
200
  0
CIRCLE
  8
0
 10
300
 20
300
 30
0.0
 40
200
  0
CIRCLE
  8
0
 10
350
 20
350
 30
0.0
 40
200
  0
CIRCLE
  8
0
 10
360
 20
360
 30
0.0
 40
200
  0
CIRCLE
  8
0
 10
370
 20
370
 30
0.0
 40
200
  0
ENDSEC
  0
EOF
