  0
SECTION
  2
ENTITIES
  0
ARC
  8
0
 10
4699.363
 20
2524.349
 30
0.0
 40
194.445
 50
52.46819
 51
104.1813
  0
ARC
  8
0
 10
4664.412
 20
2678.549
 30
0.0
 40
36.59031
 50
110.2827
 51
249.7173
  0
ARC
  8
0
 10
4699.363
 20
2832.749
 30
0.0
 40
194.445
 50
255.8187
 51
307.5318
  0
ARC
  8
0
 10
4663.621
 20
2560.089
 30
0.0
 40
194.445
 50
345.8187
 51
37.53181
  0
ARC
  8
0
 10
4817.82
 20
2525.138
 30
0.0
 40
36.59031
 50
200.2827
 51
339.7173
  0
ARC
  8
0
 10
4972.009
 20
2560.089
 30
0.0
 40
194.445
 50
142.4682
 51
194.1813
  0
ARC
  8
0
 10
4476.653
 20
2083.38
 30
0.0
 40
686.0124
 50
29.8225
 51
60.17752
  0
ARC
  8
0
 10
5043.532
 20
2396.259
 30
0.0
 40
39.99996
 50
225
 51
45
  0
ARC
  8
0
 10
5043.532
 20
2396.259
 30
0.0
 40
39.99996
 50
45
 51
225
  0
ARC
  8
0
 10
5028.898
 20
2254.63
 30
0.0
 40
175.2535
 50
14.1752
 51
75.82478
  0
ARC
  8
0
 10
5368.732
 20
2340.469
 30
0.0
 40
175.2535
 50
194.1752
 51
255.8248
  0
ARC
  8
0
 10
5354.098
 20
2198.829
 30
0.0
 40
39.99996
 50
225
 51
45
  0
ARC
  8
0
 10
5354.098
 20
2198.829
 30
0.0
 40
39.99996
 50
45
 51
225
  0
ARC
  8
0
 10
5920.978
 20
2511.709
 30
0.0
 40
686.0124
 50
209.8225
 51
240.1775
  0
ARC
  8
0
 10
5425.622
 20
2035
 30
0.0
 40
194.445
 50
322.4682
 51
14.18133
  0
ARC
  8
0
 10
5579.821
 20
2069.959
 30
0.0
 40
36.59031
 50
20.28269
 51
159.7173
  0
ARC
  8
0
 10
5734.02
 20
2035
 30
0.0
 40
194.445
 50
165.8186
 51
217.5318
  0
ARC
  8
0
 10
5698.268
 20
2070.739
 30
0.0
 40
194.445
 50
232.4682
 51
284.1813
  0
ARC
  8
0
 10
5733.219
 20
1916.55
 30
0.0
 40
36.59031
 50
290.2827
 51
69.71733
  0
ARC
  8
0
 10
5698.268
 20
1762.35
 30
0.0
 40
194.445
 50
75.8187
 51
127.5318
  0
ARC
  8
0
 10
5920.978
 20
1321.38
 30
0.0
 40
686.0124
 50
119.8225
 51
150.1775
  0
ARC
  8
0
 10
5354.098
 20
1634.26
 30
0.0
 40
39.99996
 50
135
 51
315
  0
ARC
  8
0
 10
5354.098
 20
1634.26
 30
0.0
 40
39.99996
 50
315
 51
135
  0
ARC
  8
0
 10
5368.732
 20
1492.63
 30
0.0
 40
175.2535
 50
104.1752
 51
165.8248
  0
ARC
  8
0
 10
5028.898
 20
1578.46
 30
0.0
 40
175.2535
 50
284.1752
 51
345.8248
  0
ARC
  8
0
 10
5043.532
 20
1436.83
 30
0.0
 40
39.99996
 50
135
 51
315
  0
ARC
  8
0
 10
5043.532
 20
1436.83
 30
0.0
 40
39.99996
 50
315
 51
135
  0
ARC
  8
0
 10
4476.653
 20
1749.709
 30
0.0
 40
686.0124
 50
299.8225
 51
330.1775
  0
CIRCLE
  8
0
 10
1000
 20
7000
 30
0.0
 40
100
  0
CIRCLE
  8
0
 10
2500
 20
8000
 30
0.0
 40
100
  0
CIRCLE
  8
0
 10
4000
 20
7000
 30
0.0
 40
100
  0
CIRCLE
  8
0
 10
100
 20
100
 30
0.0
 40
128
  0
CIRCLE
  8
0
 10
200
 20
200
 30
0.0
 40
187
  0
CIRCLE
  8
0
 10
300
 20
300
 30
0.0
 40
163
  0
CIRCLE
  8
0
 10
350
 20
350
 30
0.0
 40
200
  0
CIRCLE
  8
0
 10
360
 20
360
 30
0.0
 40
200
  0
CIRCLE
  8
0
 10
370
 20
370
 30
0.0
 40
200
  0
ENDSEC
  0
EOF
