  0
SECTION
  2
ENTITIES
  0
ARC
  8
0
 10
607.9413
 20
1101.646
 30
0.0
 40
131.6189
 50
220.5953
 51
297.323
  0
ARC
  8
0
 10
670.3024
 20
935.0087
 30
0.0
 40
49.74038
 50
327.72
 51
92.24387
  0
ARC
  8
0
 10
612.191
 20
994.0496
 30
0.0
 40
131.7616
 50
212.5737
 51
319.4811
  0
ARC
  8
0
 10
428.3201
 20
905.6873
 30
0.0
 40
74.89046
 50
13.45382
 51
65.72329
  0
ARC
  8
0
 10
428.3487
 20
1102.733
 30
0.0
 40
132.4017
 50
206.162
 51
283.4344
  0
ARC
  8
0
 10
276.2137
 20
1017.689
 30
0.0
 40
42.66002
 50
38.68973
 51
214.5247
  0
LINE
  8
0
 10
241.0668
 20
993.5111
 30
0.0
 11
343.1467
 21
847.04
 31
0.0
  0
ARC
  8
0
 10
332.4854
 20
669.8716
 30
0.0
 40
177.4891
 50
351.4438
 51
86.5564
  0
ARC
  8
0
 10
336.8833
 20
634.9995
 30
0.0
 40
171.3253
 50
2.832943
 51
94.58114
  0
ARC
  8
0
 10
94.75407
 20
722.6301
 30
0.0
 40
243.1063
 50
20.00018
 51
101.3284
  0
ARC
  8
0
 10
427.5283
 20
835.4954
 30
0.0
 40
400.6903
 50
161.7465
 51
232.1062
  0
ARC
  8
0
 10
755.4735
 20
109.5359
 30
0.0
 40
705.2873
 50
144.481
 51
183.3333
  0
ARC
  8
0
 10
-42.49924
 20
39.48812
 30
0.0
 40
98.2682
 50
308.8269
 51
17.19047
  0
ARC
  8
0
 10
36.22252
 20
-51.73332
 30
0.0
 40
22.53673
 50
139.3979
 51
40.60223
  0
ARC
  8
0
 10
240.6007
 20
-103.8113
 30
0.0
 40
198.8063
 50
127.0563
 51
160.3831
  0
ARC
  8
0
 10
314.835
 20
-138.1476
 30
0.0
 40
273.6698
 50
106.4896
 51
135.1543
  0
ARC
  8
0
 10
113.5536
 20
401.5641
 30
0.0
 40
303.5976
 50
294.0245
 51
13.10504
  0
ARC
  8
0
 10
289.0045
 20
653.7203
 30
0.0
 40
219.235
 50
303.2609
 51
357.3192
  0
ARC
  8
0
 10
202.9541
 20
753.2153
 30
0.0
 40
324.1877
 50
301.6502
 51
340.2122
  0
ARC
  8
0
 10
115.0043
 20
398.1189
 30
0.0
 40
269.92
 50
302.4021
 51
17.04664
  0
ARC
  8
0
 10
437.4546
 20
-476.2458
 30
0.0
 40
670.4769
 50
105.3789
 51
120.7744
  0
ARC
  8
0
 10
768.1591
 20
123.7212
 30
0.0
 40
674.1845
 50
144.1769
 51
182.0317
  0
ARC
  8
0
 10
378.8354
 20
781.8108
 30
0.0
 40
306.8925
 50
155.6295
 51
239.1605
  0
ARC
  8
0
 10
96.82472
 20
682.9349
 30
0.0
 40
225.5234
 50
22.86886
 51
89.37427
  0
ARC
  8
0
 10
308.4771
 20
550.4909
 30
0.0
 40
220.1209
 50
24.98477
 51
91.00359
  0
ARC
  8
0
 10
679.1158
 20
634.9997
 30
0.0
 40
171.3253
 50
85.4189
 51
177.1673
  0
ARC
  8
0
 10
921.2458
 20
722.6299
 30
0.0
 40
243.1063
 50
78.67175
 51
159.9998
  0
ARC
  8
0
 10
588.4717
 20
835.4954
 30
0.0
 40
400.6903
 50
307.8939
 51
18.25363
  0
ARC
  8
0
 10
260.5266
 20
109.5356
 30
0.0
 40
705.2873
 50
356.6671
 51
35.51902
  0
ARC
  8
0
 10
1058.5
 20
39.48892
 30
0.0
 40
98.2682
 50
162.8097
 51
231.1733
  0
ARC
  8
0
 10
979.7772
 20
-51.73326
 30
0.0
 40
22.53673
 50
139.3979
 51
40.60204
  0
ARC
  8
0
 10
775.3991
 20
-103.8113
 30
0.0
 40
198.8063
 50
19.6169
 51
52.94373
  0
ARC
  8
0
 10
701.1655
 20
-138.1474
 30
0.0
 40
273.6698
 50
44.84575
 51
73.51048
  0
ARC
  8
0
 10
902.4461
 20
401.5647
 30
0.0
 40
303.5976
 50
166.8952
 51
245.9757
  0
ARC
  8
0
 10
726.9948
 20
653.7209
 30
0.0
 40
219.235
 50
182.681
 51
236.7393
  0
ARC
  8
0
 10
707.5215
 20
550.4906
 30
0.0
 40
220.1209
 50
88.99634
 51
155.0153
  0
ARC
  8
0
 10
919.1743
 20
682.9344
 30
0.0
 40
225.5234
 50
90.62578
 51
157.1312
  0
ARC
  8
0
 10
637.1638
 20
781.8105
 30
0.0
 40
306.8925
 50
300.8397
 51
24.37034
  0
ARC
  8
0
 10
247.839
 20
123.7217
 30
0.0
 40
674.1845
 50
357.9685
 51
35.823
  0
ARC
  8
0
 10
578.5421
 20
-476.246
 30
0.0
 40
670.4769
 50
59.22543
 51
74.62105
  0
ARC
  8
0
 10
900.994
 20
398.1182
 30
0.0
 40
269.92
 50
162.9534
 51
237.5979
  0
ARC
  8
0
 10
813.0452
 20
753.2148
 30
0.0
 40
324.1877
 50
199.7878
 51
238.3498
  0
LINE
  8
0
 10
507.9999
 20
643.4667
 30
0.0
 11
507.9999
 21
519.2889
 31
0.0
  0
ARC
  8
0
 10
460.3726
 20
497.6403
 30
0.0
 40
52.31653
 50
261.0866
 51
24.44378
  0
ARC
  8
0
 10
502.6548
 20
406.3986
 30
0.0
 40
64.06052
 50
141.8664
 51
290.0546
  0
ARC
  8
0
 10
531.611
 20
301.0284
 30
0.0
 40
45.73104
 50
236.009
 51
98.79072
  0
ARC
  8
0
 10
463.6645
 20
199.6857
 30
0.0
 40
76.28175
 50
56.25005
 51
206.7651
  0
ARC
  8
0
 10
490.8514
 20
208.1526
 30
0.0
 40
104.4739
 50
204.1956
 51
334.623
  0
ARC
  8
0
 10
617.5403
 20
150.3614
 30
0.0
 40
34.82038
 50
342.5355
 51
158.0494
  0
ARC
  8
0
 10
508.5374
 20
158.9434
 30
0.0
 40
143.4859
 50
319.4177
 51
352.3777
  0
ARC
  8
0
 10
667.0482
 20
44.60489
 30
0.0
 40
53.8029
 50
157.0319
 51
345.7685
  0
ARC
  8
0
 10
781.3541
 20
21.00152
 30
0.0
 40
63.01453
 50
339.6726
 51
170.5222
  0
ARC
  8
0
 10
702.2784
 20
50.09534
 30
0.0
 40
147.2725
 50
222.6993
 51
339.7455
  0
ARC
  8
0
 10
254.4374
 20
-364.3249
 30
0.0
 40
462.8963
 50
42.80623
 51
85.11369
  0
ARC
  8
0
 10
284.6304
 20
20.41808
 30
0.0
 40
77.02688
 50
83.11298
 51
223.0646
  0
ARC
  8
0
 10
267.255
 20
-3.281597
 30
0.0
 40
48.45753
 50
216.6062
 51
320.456
  0
ARC
  8
0
 10
356.8773
 20
-216.8845
 30
0.0
 40
190.0753
 50
37.33845
 51
105.9571
  0
CIRCLE
  8
0
 10
1000
 20
7000
 30
0.0
 40
100
  0
CIRCLE
  8
0
 10
3500
 20
7000
 30
0.0
 40
100
  0
CIRCLE
  8
0
 10
100
 20
100
 30
0.0
 40
125
  0
CIRCLE
  8
0
 10
200
 20
200
 30
0.0
 40
200
  0
CIRCLE
  8
0
 10
300
 20
300
 30
0.0
 40
200
  0
CIRCLE
  8
0
 10
350
 20
350
 30
0.0
 40
200
  0
CIRCLE
  8
0
 10
360
 20
360
 30
0.0
 40
200
  0
CIRCLE
  8
0
 10
370
 20
370
 30
0.0
 40
200
  0
ENDSEC
  0
EOF
