  0
SECTION
  2
ENTITIES
  0
ARC
  8
0
 10
5106.972
 20
2156.64
 30
0.0
 40
63.49996
 50
0
 51
89.99999
  0
ARC
  8
0
 10
5170.472
 20
2093.14
 30
0.0
 40
63.49996
 50
0
 51
89.99999
  0
ARC
  8
0
 10
5170.472
 20
2093.14
 30
0.0
 40
63.49996
 50
270
 51
0
  0
ARC
  8
0
 10
5106.972
 20
2029.64
 30
0.0
 40
63.49996
 50
270
 51
0
  0
ARC
  8
0
 10
5106.972
 20
1902.64
 30
0.0
 40
63.49996
 50
89.99999
 51
179.9999
  0
ARC
  8
0
 10
5043.472
 20
1839.14
 30
0.0
 40
63.49996
 50
89.99999
 51
179.9999
  0
ARC
  8
0
 10
5043.472
 20
1839.14
 30
0.0
 40
63.49996
 50
179.9999
 51
269.9999
  0
ARC
  8
0
 10
5106.971
 20
1775.64
 30
0.0
 40
63.49996
 50
179.9999
 51
270.0001
  0
CIRCLE
  8
0
 10
1000
 20
7000
 30
0.0
 40
100
  0
CIRCLE
  8
0
 10
1000
 20
8000
 30
0.0
 40
100
  0
CIRCLE
  8
0
 10
1500
 20
7000
 30
0.0
 40
100
  0
CIRCLE
  8
0
 10
1500
 20
8000
 30
0.0
 40
100
  0
CIRCLE
  8
0
 10
100
 20
100
 30
0.0
 40
125
  0
CIRCLE
  8
0
 10
200
 20
200
 30
0.0
 40
200
  0
CIRCLE
  8
0
 10
300
 20
300
 30
0.0
 40
200
  0
CIRCLE
  8
0
 10
350
 20
350
 30
0.0
 40
200
  0
CIRCLE
  8
0
 10
360
 20
360
 30
0.0
 40
200
  0
CIRCLE
  8
0
 10
370
 20
370
 30
0.0
 40
200
  0
ENDSEC
  0
EOF
