  0
SECTION
  2
ENTITIES
  0
ARC
  8
0
 10
1292.353
 20
2349.078
 30
0.0
 40
64.98392
 50
93.85606
 51
125.205
  0
ARC
  8
0
 10
1285.249
 20
2371.581
 30
0.0
 40
43.1016
 50
134.7794
 51
247.1413
  0
LINE
  8
0
 10
1268.506
 20
2331.864
 30
0.0
 11
1427.456
 21
2241.964
 31
0.0
  0
ARC
  8
0
 10
1410.713
 20
2202.248
 30
0.0
 40
43.1016
 50
314.7794
 51
67.14131
  0
ARC
  8
0
 10
1403.609
 20
2224.751
 30
0.0
 40
64.98392
 50
273.856
 51
305.205
  0
ARC
  8
0
 10
1403.609
 20
2095.078
 30
0.0
 40
64.98392
 50
54.79498
 51
86.14393
  0
ARC
  8
0
 10
1410.713
 20
2117.581
 30
0.0
 40
43.1016
 50
292.8587
 51
45.22058
  0
LINE
  8
0
 10
1427.456
 20
2077.864
 30
0.0
 11
1268.506
 21
1987.964
 31
0.0
  0
ARC
  8
0
 10
1285.249
 20
1948.248
 30
0.0
 40
43.1016
 50
112.8587
 51
225.2206
  0
ARC
  8
0
 10
1292.353
 20
1970.751
 30
0.0
 40
64.98392
 50
234.795
 51
266.1439
  0
CIRCLE
  8
0
 10
1000
 20
7000
 30
0.0
 40
100
  0
CIRCLE
  8
0
 10
1500
 20
8000
 30
0.0
 40
100
  0
CIRCLE
  8
0
 10
2000
 20
7000
 30
0.0
 40
100
  0
CIRCLE
  8
0
 10
100
 20
100
 30
0.0
 40
125
  0
CIRCLE
  8
0
 10
200
 20
200
 30
0.0
 40
204
  0
CIRCLE
  8
0
 10
300
 20
300
 30
0.0
 40
200
  0
CIRCLE
  8
0
 10
350
 20
350
 30
0.0
 40
200
  0
CIRCLE
  8
0
 10
360
 20
360
 30
0.0
 40
200
  0
CIRCLE
  8
0
 10
370
 20
370
 30
0.0
 40
200
  0
ENDSEC
  0
EOF
