  0
SECTION
  2
ENTITIES
  0
ARC
  8
0
 10
5195.218
 20
1785.868
 30
0.0
 40
44.09725
 50
180.0002
 51
253.7399
  0
LINE
  8
0
 10
5182.873
 20
1743.53
 30
0.0
 11
5214.621
 21
1743.53
 31
0.0
  0
LINE
  8
0
 10
5214.617
 20
1743.536
 30
0.0
 11
5214.617
 21
1701.196
 31
0.0
  0
LINE
  8
0
 10
5214.617
 20
1701.196
 30
0.0
 11
5246.365
 21
1701.196
 31
0.0
  0
ARC
  8
0
 10
5234.016
 20
1658.867
 30
0.0
 40
44.09725
 50
1.58607E-04
 51
73.7399
  0
ARC
  8
0
 10
5234.016
 20
1658.867
 30
0.0
 40
44.09725
 50
286.2601
 51
1.58607E-04
  0
LINE
  8
0
 10
5246.365
 20
1616.537
 30
0.0
 11
5214.617
 21
1616.537
 31
0.0
  0
LINE
  8
0
 10
5214.617
 20
1616.537
 30
0.0
 11
5214.617
 21
1574.197
 31
0.0
  0
LINE
  8
0
 10
5214.619
 20
1574.193
 30
0.0
 11
5182.871
 21
1574.193
 31
0.0
  0
ARC
  8
0
 10
5195.218
 20
1531.867
 30
0.0
 40
44.09725
 50
106.2601
 51
179.9998
  0
ARC
  8
0
 10
5107.024
 20
1531.868
 30
0.0
 40
44.09725
 50
286.2602
 51
360
  0
LINE
  8
0
 10
5119.369
 20
1489.53
 30
0.0
 11
5087.621
 21
1489.53
 31
0.0
  0
LINE
  8
0
 10
5087.625
 20
1489.536
 30
0.0
 11
5087.625
 21
1447.196
 31
0.0
  0
LINE
  8
0
 10
5087.625
 20
1447.196
 30
0.0
 11
5055.877
 21
1447.196
 31
0.0
  0
ARC
  8
0
 10
5068.226
 20
1404.867
 30
0.0
 40
44.09725
 50
106.2602
 51
180
  0
ARC
  8
0
 10
5068.226
 20
1404.867
 30
0.0
 40
44.09725
 50
180
 51
253.7397
  0
LINE
  8
0
 10
5055.877
 20
1362.537
 30
0.0
 11
5087.625
 21
1362.537
 31
0.0
  0
LINE
  8
0
 10
5087.625
 20
1362.537
 30
0.0
 11
5087.625
 21
1320.197
 31
0.0
  0
LINE
  8
0
 10
5087.623
 20
1320.193
 30
0.0
 11
5119.371
 21
1320.193
 31
0.0
  0
ARC
  8
0
 10
5107.024
 20
1277.867
 30
0.0
 40
44.09725
 50
1.58607E-04
 51
73.73995
  0
CIRCLE
  8
0
 10
1000
 20
7000
 30
0.0
 40
100
  0
CIRCLE
  8
0
 10
1000
 20
8000
 30
0.0
 40
100
  0
CIRCLE
  8
0
 10
1500
 20
7000
 30
0.0
 40
100
  0
CIRCLE
  8
0
 10
1500
 20
8000
 30
0.0
 40
100
  0
CIRCLE
  8
0
 10
100
 20
100
 30
0.0
 40
125
  0
CIRCLE
  8
0
 10
200
 20
200
 30
0.0
 40
200
  0
CIRCLE
  8
0
 10
300
 20
300
 30
0.0
 40
200
  0
CIRCLE
  8
0
 10
350
 20
350
 30
0.0
 40
200
  0
CIRCLE
  8
0
 10
360
 20
360
 30
0.0
 40
200
  0
CIRCLE
  8
0
 10
370
 20
370
 30
0.0
 40
200
  0
ENDSEC
  0
EOF
