  0
SECTION
  2
ENTITIES
  0
LINE
  8
0
 10
5061.402
 20
1512.315
 30
0.0
 11
5188.407
 21
1385.315
 31
0.0
  0
LINE
  8
0
 10
5188.407
 20
1385.315
 30
0.0
 11
5124.901
 21
1385.315
 31
0.0
  0
ARC
  8
0
 10
5093.15
 20
1321.86
 30
0.0
 40
70.95425
 50
63.4184
 51
116.5816
  0
ARC
  8
0
 10
5029.657
 20
1448.77
 30
0.0
 40
70.95425
 50
243.4184
 51
296.5816
  0
ARC
  8
0
 10
5029.657
 20
1321.86
 30
0.0
 40
70.95425
 50
63.4184
 51
116.5816
  0
ARC
  8
0
 10
4997.953
 20
1417.065
 30
0.0
 40
70.95425
 50
333.4184
 51
26.5816
  0
ARC
  8
0
 10
5124.857
 20
1417.065
 30
0.0
 40
70.95425
 50
153.4184
 51
206.5816
  0
ARC
  8
0
 10
4997.953
 20
1353.565
 30
0.0
 40
70.95425
 50
333.4184
 51
26.5816
  0
ARC
  8
0
 10
5124.857
 20
1353.565
 30
0.0
 40
70.95425
 50
153.4184
 51
206.5816
  0
ARC
  8
0
 10
5093.15
 20
1448.77
 30
0.0
 40
70.95425
 50
243.4184
 51
296.5816
  0
LINE
  8
0
 10
5124.901
 20
1385.315
 30
0.0
 11
5188.407
 21
1385.315
 31
0.0
  0
LINE
  8
0
 10
5188.407
 20
1385.315
 30
0.0
 11
5061.402
 21
1258.315
 31
0.0
  0
LINE
  8
0
 10
5061.402
 20
1258.315
 30
0.0
 11
4934.396
 21
1131.315
 31
0.0
  0
LINE
  8
0
 10
4934.396
 20
1131.315
 30
0.0
 11
5061.402
 21
1004.315
 31
0.0
  0
CIRCLE
  8
0
 10
1000
 20
7000
 30
0.0
 40
100
  0
CIRCLE
  8
0
 10
1000
 20
8000
 30
0.0
 40
100
  0
CIRCLE
  8
0
 10
1500
 20
7000
 30
0.0
 40
100
  0
CIRCLE
  8
0
 10
1500
 20
8000
 30
0.0
 40
100
  0
CIRCLE
  8
0
 10
100
 20
100
 30
0.0
 40
125
  0
CIRCLE
  8
0
 10
200
 20
200
 30
0.0
 40
200
  0
CIRCLE
  8
0
 10
300
 20
300
 30
0.0
 40
200
  0
CIRCLE
  8
0
 10
350
 20
350
 30
0.0
 40
200
  0
CIRCLE
  8
0
 10
360
 20
360
 30
0.0
 40
200
  0
CIRCLE
  8
0
 10
370
 20
370
 30
0.0
 40
200
  0
ENDSEC
  0
EOF
