  0
SECTION
  2
ENTITIES
  0
ARC
  8
0
 10
5041.518
 20
1519.696
 30
0.0
 40
245.8333
 50
359.0205
 51
90.97952
  0
ARC
  8
0
 10
5283.11
 20
1761.287
 30
0.0
 40
245.8333
 50
179.0205
 51
270.9795
  0
ARC
  8
0
 10
5283.11
 20
1269.696
 30
0.0
 40
245.8333
 50
89.02046
 51
180.9795
  0
ARC
  8
0
 10
5041.518
 20
1511.287
 30
0.0
 40
245.8333
 50
269.0205
 51
.9795363
  0
LINE
  8
0
 10
5278.906
 20
1515.487
 30
0.0
 11
4516.909
 21
753.4865
 31
0.0
  0
ARC
  8
0
 10
4762.709
 20
757.6967
 30
0.0
 40
245.8333
 50
89.02046
 51
180.9795
  0
ARC
  8
0
 10
4521.108
 20
999.2859
 30
0.0
 40
245.8333
 50
269.0205
 51
.9795363
  0
ARC
  8
0
 10
4762.709
 20
749.286
 30
0.0
 40
245.8333
 50
179.0205
 51
270.9795
  0
ARC
  8
0
 10
4521.108
 20
507.6967
 30
0.0
 40
245.8333
 50
359.0205
 51
90.97952
  0
LINE
  8
0
 10
4516.909
 20
753.4865
 30
0.0
 11
5278.906
 21
-8.512917
 31
0.0
  0
CIRCLE
  8
0
 10
1000
 20
7000
 30
0.0
 40
100
  0
CIRCLE
  8
0
 10
2500
 20
8000
 30
0.0
 40
100
  0
CIRCLE
  8
0
 10
4000
 20
7000
 30
0.0
 40
100
  0
CIRCLE
  8
0
 10
100
 20
100
 30
0.0
 40
125
  0
CIRCLE
  8
0
 10
200
 20
200
 30
0.0
 40
200
  0
CIRCLE
  8
0
 10
300
 20
300
 30
0.0
 40
200
  0
CIRCLE
  8
0
 10
350
 20
350
 30
0.0
 40
200
  0
CIRCLE
  8
0
 10
360
 20
360
 30
0.0
 40
200
  0
CIRCLE
  8
0
 10
370
 20
370
 30
0.0
 40
200
  0
ENDSEC
  0
EOF
