  0
SECTION
  2
ENTITIES
  0
ARC
  8
0
 10
6329.99
 20
1879.615
 30
0.0
 40
134.6218
 50
184.2441
 51
287.2717
  0
ARC
  8
0
 10
6328.061
 20
1807.378
 30
0.0
 40
70.19074
 50
306.65
 51
62.52619
  0
ARC
  8
0
 10
6361.108
 20
1757.693
 30
0.0
 40
111.9613
 50
4.407914
 51
90.34055
  0
ARC
  8
0
 10
6392.017
 20
1759.919
 30
0.0
 40
80.97301
 50
265.9066
 51
4.518598
  0
ARC
  8
0
 10
6380.457
 20
1598.386
 30
0.0
 40
80.97301
 50
85.90661
 51
184.5186
  0
ARC
  8
0
 10
6411.365
 20
1600.612
 30
0.0
 40
111.9613
 50
184.4079
 51
270.3405
  0
ARC
  8
0
 10
6444.414
 20
1550.927
 30
0.0
 40
70.19074
 50
126.65
 51
242.5262
  0
ARC
  8
0
 10
6442.484
 20
1478.69
 30
0.0
 40
134.6218
 50
4.244111
 51
107.2717
  0
ARC
  8
0
 10
6373.715
 20
1476.13
 30
0.0
 40
203.4083
 50
3.529532
 51
86.47045
  0
ARC
  8
0
 10
6398.76
 20
1882.175
 30
0.0
 40
203.4083
 50
183.5295
 51
266.4705
  0
ARC
  8
0
 10
6398.76
 20
1882.175
 30
0.0
 40
203.4083
 50
183.5295
 51
266.4705
  0
ARC
  8
0
 10
6373.715
 20
1476.13
 30
0.0
 40
203.4083
 50
3.529532
 51
86.47045
  0
ARC
  8
0
 10
6710.989
 20
1498.615
 30
0.0
 40
134.6218
 50
184.2441
 51
287.2717
  0
ARC
  8
0
 10
6709.061
 20
1426.378
 30
0.0
 40
70.19074
 50
306.65
 51
62.52619
  0
ARC
  8
0
 10
6742.108
 20
1376.693
 30
0.0
 40
111.9613
 50
4.407914
 51
90.34055
  0
ARC
  8
0
 10
6773.017
 20
1378.919
 30
0.0
 40
80.97301
 50
265.9066
 51
4.518598
  0
ARC
  8
0
 10
6761.456
 20
1217.386
 30
0.0
 40
80.97301
 50
85.90661
 51
184.5186
  0
ARC
  8
0
 10
6792.365
 20
1219.612
 30
0.0
 40
111.9613
 50
184.4079
 51
270.3405
  0
ARC
  8
0
 10
6825.413
 20
1169.927
 30
0.0
 40
70.19074
 50
126.65
 51
242.5262
  0
ARC
  8
0
 10
6823.484
 20
1097.69
 30
0.0
 40
134.6218
 50
4.244111
 51
107.2717
  0
ARC
  8
0
 10
6754.714
 20
1095.13
 30
0.0
 40
203.4083
 50
3.529532
 51
86.47045
  0
ARC
  8
0
 10
6779.759
 20
1501.175
 30
0.0
 40
203.4083
 50
183.5295
 51
266.4705
  0
ARC
  8
0
 10
6779.759
 20
1501.175
 30
0.0
 40
203.4083
 50
183.5295
 51
266.4705
  0
ARC
  8
0
 10
6754.714
 20
1095.13
 30
0.0
 40
203.4083
 50
3.529532
 51
86.47045
  0
ARC
  8
0
 10
6967.699
 20
973.3997
 30
0.0
 40
134.6218
 50
94.24412
 51
197.2717
  0
ARC
  8
0
 10
6895.461
 20
975.3287
 30
0.0
 40
70.19074
 50
216.65
 51
332.5262
  0
ARC
  8
0
 10
6845.777
 20
942.2814
 30
0.0
 40
111.9613
 50
274.4079
 51
.340578
  0
ARC
  8
0
 10
6848.003
 20
911.3724
 30
0.0
 40
80.97301
 50
175.9066
 51
274.5186
  0
ARC
  8
0
 10
6686.47
 20
922.9331
 30
0.0
 40
80.97301
 50
355.9066
 51
94.51862
  0
ARC
  8
0
 10
6688.695
 20
892.024
 30
0.0
 40
111.9613
 50
94.40793
 51
180.3405
  0
ARC
  8
0
 10
6639.011
 20
858.9768
 30
0.0
 40
70.19074
 50
36.64998
 51
152.5262
  0
ARC
  8
0
 10
6566.774
 20
860.9058
 30
0.0
 40
134.6218
 50
274.2441
 51
17.27169
  0
ARC
  8
0
 10
6564.214
 20
929.6756
 30
0.0
 40
203.4083
 50
273.5295
 51
356.4705
  0
ARC
  8
0
 10
6970.259
 20
904.6299
 30
0.0
 40
203.4083
 50
93.52953
 51
176.4704
  0
ARC
  8
0
 10
6970.259
 20
904.6299
 30
0.0
 40
203.4083
 50
93.52953
 51
176.4704
  0
ARC
  8
0
 10
6564.214
 20
929.6756
 30
0.0
 40
203.4083
 50
273.5295
 51
356.4705
  0
ARC
  8
0
 10
6586.699
 20
592.4
 30
0.0
 40
134.6218
 50
94.24412
 51
197.2717
  0
ARC
  8
0
 10
6514.461
 20
594.329
 30
0.0
 40
70.19074
 50
216.65
 51
332.5262
  0
ARC
  8
0
 10
6464.777
 20
561.2817
 30
0.0
 40
111.9613
 50
274.4079
 51
.340578
  0
ARC
  8
0
 10
6467.003
 20
530.3727
 30
0.0
 40
80.97301
 50
175.9066
 51
274.5186
  0
ARC
  8
0
 10
6305.47
 20
541.9329
 30
0.0
 40
80.97301
 50
355.9066
 51
94.51862
  0
ARC
  8
0
 10
6307.695
 20
511.0239
 30
0.0
 40
111.9613
 50
94.40793
 51
180.3405
  0
ARC
  8
0
 10
6258.011
 20
477.9767
 30
0.0
 40
70.19074
 50
36.64998
 51
152.5262
  0
ARC
  8
0
 10
6185.773
 20
479.9057
 30
0.0
 40
134.6218
 50
274.2441
 51
17.27169
  0
ARC
  8
0
 10
6183.214
 20
548.6754
 30
0.0
 40
203.4083
 50
273.5295
 51
356.4705
  0
ARC
  8
0
 10
6589.259
 20
523.6302
 30
0.0
 40
203.4083
 50
93.52953
 51
176.4704
  0
ARC
  8
0
 10
6589.259
 20
523.6302
 30
0.0
 40
203.4083
 50
93.52953
 51
176.4704
  0
ARC
  8
0
 10
6183.214
 20
548.6754
 30
0.0
 40
203.4083
 50
273.5295
 51
356.4705
  0
CIRCLE
  8
0
 10
1000
 20
7000
 30
0.0
 40
100
  0
CIRCLE
  8
0
 10
1000
 20
8000
 30
0.0
 40
100
  0
CIRCLE
  8
0
 10
2500
 20
7000
 30
0.0
 40
100
  0
CIRCLE
  8
0
 10
2500
 20
8000
 30
0.0
 40
100
  0
CIRCLE
  8
0
 10
100
 20
100
 30
0.0
 40
127
  0
CIRCLE
  8
0
 10
200
 20
200
 30
0.0
 40
200
  0
CIRCLE
  8
0
 10
300
 20
300
 30
0.0
 40
200
  0
CIRCLE
  8
0
 10
350
 20
350
 30
0.0
 40
200
  0
CIRCLE
  8
0
 10
360
 20
360
 30
0.0
 40
200
  0
CIRCLE
  8
0
 10
370
 20
370
 30
0.0
 40
200
  0
ENDSEC
  0
EOF
