  0
SECTION
  2
ENTITIES
  0
LINE
  8
0
 10
5271.498
 20
1528.966
 30
0.0
 11
5398.486
 21
1401.966
 31
0.0
  0
LINE
  8
0
 10
5398.486
 20
1401.966
 30
0.0
 11
5271.498
 21
1274.966
 31
0.0
  0
LINE
  8
0
 10
5271.498
 20
1274.966
 30
0.0
 11
5398.486
 21
1147.966
 31
0.0
  0
LINE
  8
0
 10
5398.486
 20
1147.966
 30
0.0
 11
5271.498
 21
1020.966
 31
0.0
  0
LINE
  8
0
 10
5271.498
 20
1020.966
 30
0.0
 11
5398.486
 21
893.9658
 31
0.0
  0
LINE
  8
0
 10
5398.486
 20
893.9658
 30
0.0
 11
5271.498
 21
766.9658
 31
0.0
  0
LINE
  8
0
 10
5271.498
 20
766.9658
 30
0.0
 11
5398.486
 21
639.9658
 31
0.0
  0
LINE
  8
0
 10
5398.486
 20
639.9658
 30
0.0
 11
5271.498
 21
512.9659
 31
0.0
  0
LINE
  8
0
 10
5271.498
 20
512.9659
 30
0.0
 11
5398.486
 21
385.9665
 31
0.0
  0
LINE
  8
0
 10
5398.486
 20
385.9665
 30
0.0
 11
5271.498
 21
258.9656
 31
0.0
  0
LINE
  8
0
 10
5271.498
 20
258.9656
 30
0.0
 11
5144.486
 21
131.9662
 31
0.0
  0
LINE
  8
0
 10
5144.486
 20
131.9662
 30
0.0
 11
5017.5
 21
258.9656
 31
0.0
  0
LINE
  8
0
 10
5017.5
 20
258.9656
 30
0.0
 11
4890.488
 21
131.9662
 31
0.0
  0
LINE
  8
0
 10
4890.488
 20
131.9662
 30
0.0
 11
4763.486
 21
258.9656
 31
0.0
  0
LINE
  8
0
 10
4763.486
 20
258.9656
 30
0.0
 11
4636.498
 21
131.9662
 31
0.0
  0
LINE
  8
0
 10
4636.498
 20
131.9662
 30
0.0
 11
4509.486
 21
258.9656
 31
0.0
  0
LINE
  8
0
 10
4509.486
 20
258.9656
 30
0.0
 11
4382.5
 21
131.9662
 31
0.0
  0
LINE
  8
0
 10
4382.5
 20
131.9662
 30
0.0
 11
4255.488
 21
258.9656
 31
0.0
  0
LINE
  8
0
 10
4255.488
 20
258.9656
 30
0.0
 11
4128.486
 21
131.9662
 31
0.0
  0
LINE
  8
0
 10
4128.486
 20
131.9662
 30
0.0
 11
4001.498
 21
258.9656
 31
0.0
  0
LINE
  8
0
 10
4001.498
 20
258.9656
 30
0.0
 11
4128.486
 21
131.9662
 31
0.0
  0
LINE
  8
0
 10
4128.486
 20
131.9662
 30
0.0
 11
4001.498
 21
4.966527
 31
0.0
  0
LINE
  8
0
 10
4001.498
 20
4.966527
 30
0.0
 11
4128.486
 21
-122.034
 31
0.0
  0
LINE
  8
0
 10
4128.486
 20
-122.034
 30
0.0
 11
4001.498
 21
-249.0336
 31
0.0
  0
LINE
  8
0
 10
4001.498
 20
-249.0336
 30
0.0
 11
4128.486
 21
-376.0345
 31
0.0
  0
LINE
  8
0
 10
4128.486
 20
-376.0345
 30
0.0
 11
4001.498
 21
-503.0339
 31
0.0
  0
LINE
  8
0
 10
4001.498
 20
-503.0339
 30
0.0
 11
4128.486
 21
-630.0333
 31
0.0
  0
LINE
  8
0
 10
4128.486
 20
-630.0333
 30
0.0
 11
4001.498
 21
-757.0342
 31
0.0
  0
LINE
  8
0
 10
4001.498
 20
-757.0342
 30
0.0
 11
4128.486
 21
-884.0338
 31
0.0
  0
LINE
  8
0
 10
4128.486
 20
-884.0338
 30
0.0
 11
4001.498
 21
-1011.034
 31
0.0
  0
LINE
  8
0
 10
4001.498
 20
-1011.034
 30
0.0
 11
4128.486
 21
-1138.034
 31
0.0
  0
LINE
  8
0
 10
4128.486
 20
-1138.034
 30
0.0
 11
4255.488
 21
-1011.034
 31
0.0
  0
LINE
  8
0
 10
4255.488
 20
-1011.034
 30
0.0
 11
4382.5
 21
-1138.034
 31
0.0
  0
LINE
  8
0
 10
4382.5
 20
-1138.034
 30
0.0
 11
4509.486
 21
-1011.034
 31
0.0
  0
LINE
  8
0
 10
4509.486
 20
-1011.034
 30
0.0
 11
4636.498
 21
-1138.034
 31
0.0
  0
LINE
  8
0
 10
4636.498
 20
-1138.034
 30
0.0
 11
4763.486
 21
-1011.034
 31
0.0
  0
LINE
  8
0
 10
4763.486
 20
-1011.034
 30
0.0
 11
4890.488
 21
-1138.034
 31
0.0
  0
LINE
  8
0
 10
4890.488
 20
-1138.034
 30
0.0
 11
5017.5
 21
-1011.034
 31
0.0
  0
LINE
  8
0
 10
5017.5
 20
-1011.034
 30
0.0
 11
5144.486
 21
-1138.034
 31
0.0
  0
LINE
  8
0
 10
5144.486
 20
-1138.034
 30
0.0
 11
5271.498
 21
-1011.034
 31
0.0
  0
CIRCLE
  8
0
 10
1000
 20
7000
 30
0.0
 40
100
  0
CIRCLE
  8
0
 10
3500
 20
7000
 30
0.0
 40
100
  0
CIRCLE
  8
0
 10
100
 20
100
 30
0.0
 40
125
  0
CIRCLE
  8
0
 10
200
 20
200
 30
0.0
 40
200
  0
CIRCLE
  8
0
 10
300
 20
300
 30
0.0
 40
200
  0
CIRCLE
  8
0
 10
350
 20
350
 30
0.0
 40
200
  0
CIRCLE
  8
0
 10
360
 20
360
 30
0.0
 40
200
  0
CIRCLE
  8
0
 10
370
 20
370
 30
0.0
 40
200
  0
ENDSEC
  0
EOF
