  0
SECTION
  2
ENTITIES
  0
LINE
  8
0
 10
4746.227
 20
2268.745
 30
0.0
 11
4746.227
 21
2058.745
 31
0.0
  0
LINE
  8
0
 10
4746.227
 20
2058.745
 30
0.0
 11
5298.229
 21
1506.745
 31
0.0
  0
LINE
  8
0
 10
5298.229
 20
1506.745
 30
0.0
 11
5508.229
 21
1506.745
 31
0.0
  0
LINE
  8
0
 10
5508.229
 20
1506.745
 30
0.0
 11
5508.229
 21
1436.745
 31
0.0
  0
LINE
  8
0
 10
5508.229
 20
1436.745
 30
0.0
 11
5298.229
 21
1436.745
 31
0.0
  0
LINE
  8
0
 10
5298.229
 20
1436.745
 30
0.0
 11
5298.229
 21
1366.745
 31
0.0
  0
LINE
  8
0
 10
5298.229
 20
1366.745
 30
0.0
 11
5508.229
 21
1366.745
 31
0.0
  0
LINE
  8
0
 10
5508.229
 20
1366.745
 30
0.0
 11
5508.229
 21
1296.745
 31
0.0
  0
LINE
  8
0
 10
5508.229
 20
1296.745
 30
0.0
 11
5298.229
 21
1296.745
 31
0.0
  0
LINE
  8
0
 10
5298.229
 20
1296.745
 30
0.0
 11
4746.227
 21
744.7451
 31
0.0
  0
CIRCLE
  8
0
 10
1000
 20
7000
 30
0.0
 40
100
  0
CIRCLE
  8
0
 10
2500
 20
8000
 30
0.0
 40
100
  0
CIRCLE
  8
0
 10
4000
 20
7000
 30
0.0
 40
100
  0
CIRCLE
  8
0
 10
5500
 20
8000
 30
0.0
 40
100
  0
CIRCLE
  8
0
 10
7000
 20
7000
 30
0.0
 40
100
  0
CIRCLE
  8
0
 10
100
 20
100
 30
0.0
 40
125
  0
CIRCLE
  8
0
 10
200
 20
200
 30
0.0
 40
200
  0
CIRCLE
  8
0
 10
300
 20
300
 30
0.0
 40
200
  0
CIRCLE
  8
0
 10
350
 20
350
 30
0.0
 40
200
  0
CIRCLE
  8
0
 10
360
 20
360
 30
0.0
 40
200
  0
CIRCLE
  8
0
 10
370
 20
370
 30
0.0
 40
200
  0
ENDSEC
  0
EOF
