  0
SECTION
  2
ENTITIES
  0
LINE
  8
0
 10
4596.198
 20
2136.51
 30
0.0
 11
4827.199
 21
1905.51
 31
0.0
  0
ARC
  8
0
 10
4827.199
 20
1755.51
 30
0.0
 40
150
 50
89.99999
 51
180
  0
ARC
  8
0
 10
4827.199
 20
1755.51
 30
0.0
 40
150
 50
180
 51
0
  0
ARC
  8
0
 10
4827.199
 20
1755.51
 30
0.0
 40
150
 50
0
 51
89.99999
  0
ARC
  8
0
 10
4827.199
 20
1755.51
 30
0.0
 40
150
 50
0
 51
89.99999
  0
ARC
  8
0
 10
4852.199
 20
1755.51
 30
0.0
 40
125
 50
0
 51
180
  0
ARC
  8
0
 10
4852.199
 20
1755.51
 30
0.0
 40
125
 50
180
 51
0
  0
ARC
  8
0
 10
4879.699
 20
1755.51
 30
0.0
 40
97.49998
 50
0
 51
180
  0
ARC
  8
0
 10
4879.699
 20
1755.51
 30
0.0
 40
97.49998
 50
180
 51
0
  0
LINE
  8
0
 10
4977.199
 20
1755.51
 30
0.0
 11
5208.21
 21
1524.51
 31
0.0
  0
ARC
  8
0
 10
5208.21
 20
1374.51
 30
0.0
 40
150
 50
89.99999
 51
180
  0
ARC
  8
0
 10
5208.21
 20
1374.51
 30
0.0
 40
150
 50
180
 51
270
  0
ARC
  8
0
 10
5208.21
 20
1374.51
 30
0.0
 40
150
 50
270
 51
360
  0
ARC
  8
0
 10
5208.21
 20
1374.51
 30
0.0
 40
150
 50
0
 51
89.99999
  0
ARC
  8
0
 10
5208.21
 20
1374.51
 30
0.0
 40
150
 50
0
 51
89.99999
  0
ARC
  8
0
 10
5233.21
 20
1374.51
 30
0.0
 40
125
 50
0
 51
180
  0
ARC
  8
0
 10
5233.21
 20
1374.51
 30
0.0
 40
125
 50
180
 51
0
  0
ARC
  8
0
 10
5260.71
 20
1374.51
 30
0.0
 40
97.49998
 50
0
 51
180
  0
ARC
  8
0
 10
5260.71
 20
1374.51
 30
0.0
 40
97.49998
 50
180
 51
0
  0
ARC
  8
0
 10
5208.21
 20
1374.51
 30
0.0
 40
150
 50
270
 51
360
  0
LINE
  8
0
 10
5208.21
 20
1224.51
 30
0.0
 11
4596.198
 21
612.5099
 31
0.0
  0
CIRCLE
  8
0
 10
1000
 20
7000
 30
0.0
 40
100
  0
CIRCLE
  8
0
 10
2500
 20
8000
 30
0.0
 40
100
  0
CIRCLE
  8
0
 10
4000
 20
7000
 30
0.0
 40
100
  0
CIRCLE
  8
0
 10
100
 20
100
 30
0.0
 40
125
  0
CIRCLE
  8
0
 10
200
 20
200
 30
0.0
 40
200
  0
CIRCLE
  8
0
 10
300
 20
300
 30
0.0
 40
200
  0
CIRCLE
  8
0
 10
350
 20
350
 30
0.0
 40
200
  0
CIRCLE
  8
0
 10
360
 20
360
 30
0.0
 40
200
  0
CIRCLE
  8
0
 10
370
 20
370
 30
0.0
 40
200
  0
ENDSEC
  0
EOF
