  0
SECTION
  2
ENTITIES
  0
LINE
  8
0
 10
63.50002
 20
254
 30
0.0
 11
127
 21
190.5
 31
0.0
  0
LINE
  8
0
 10
127
 20
190.5
 30
0.0
 11
190.5
 21
127
 31
0.0
  0
LINE
  8
0
 10
190.5
 20
127
 30
0.0
 11
254
 21
63.5
 31
0.0
  0
LINE
  8
0
 10
254
 20
63.5
 30
0.0
 11
317.5
 21
1.525879e-05
 31
0.0
  0
LINE
  8
0
 10
317.5
 20
1.525879e-05
 30
0.0
 11
381
 21
-63.5
 31
0.0
  0
LINE
  8
0
 10
381
 20
-63.5
 30
0.0
 11
444.5
 21
-127
 31
0.0
  0
LINE
  8
0
 10
444.5
 20
-127
 30
0.0
 11
508
 21
-190.5
 31
0.0
  0
LINE
  8
0
 10
508
 20
-190.5
 30
0.0
 11
444.5
 21
-254
 31
0.0
  0
LINE
  8
0
 10
444.5
 20
-254
 30
0.0
 11
381
 21
-190.5
 31
0.0
  0
LINE
  8
0
 10
381
 20
-190.5
 30
0.0
 11
317.5
 21
-127
 31
0.0
  0
LINE
  8
0
 10
317.5
 20
-127
 30
0.0
 11
254
 21
-63.5
 31
0.0
  0
LINE
  8
0
 10
254
 20
-63.5
 30
0.0
 11
190.5
 21
1.525879e-05
 31
0.0
  0
LINE
  8
0
 10
190.5
 20
1.525879e-05
 30
0.0
 11
127
 21
63.5
 31
0.0
  0
LINE
  8
0
 10
127
 20
63.5
 30
0.0
 11
63.50002
 21
127
 31
0.0
  0
LINE
  8
0
 10
63.50002
 20
127
 30
0.0
 11
127
 21
190.5
 31
0.0
  0
LINE
  8
0
 10
127
 20
190.5
 30
0.0
 11
190.5
 21
254
 31
0.0
  0
LINE
  8
0
 10
190.5
 20
254
 30
0.0
 11
254
 21
190.5
 31
0.0
  0
LINE
  8
0
 10
254
 20
190.5
 30
0.0
 11
317.5
 21
127
 31
0.0
  0
LINE
  8
0
 10
317.5
 20
127
 30
0.0
 11
381
 21
63.5
 31
0.0
  0
LINE
  8
0
 10
381
 20
63.5
 30
0.0
 11
444.5
 21
1.525879e-05
 31
0.0
  0
LINE
  8
0
 10
444.5
 20
1.525879e-05
 30
0.0
 11
508
 21
-63.5
 31
0.0
  0
LINE
  8
0
 10
508
 20
-63.5
 30
0.0
 11
444.5
 21
-127
 31
0.0
  0
LINE
  8
0
 10
444.5
 20
-127
 30
0.0
 11
381
 21
-190.5
 31
0.0
  0
LINE
  8
0
 10
381
 20
-190.5
 30
0.0
 11
317.5
 21
-254
 31
0.0
  0
LINE
  8
0
 10
317.5
 20
-254
 30
0.0
 11
254
 21
-190.5
 31
0.0
  0
LINE
  8
0
 10
254
 20
-190.5
 30
0.0
 11
190.5
 21
-127
 31
0.0
  0
LINE
  8
0
 10
190.5
 20
-127
 30
0.0
 11
127
 21
-63.5
 31
0.0
  0
LINE
  8
0
 10
127
 20
-63.5
 30
0.0
 11
63.50002
 21
1.525879e-05
 31
0.0
  0
LINE
  8
0
 10
63.50002
 20
1.525879e-05
 30
0.0
 11
127
 21
63.5
 31
0.0
  0
LINE
  8
0
 10
127
 20
63.5
 30
0.0
 11
190.5
 21
127
 31
0.0
  0
LINE
  8
0
 10
190.5
 20
127
 30
0.0
 11
254
 21
190.5
 31
0.0
  0
LINE
  8
0
 10
254
 20
190.5
 30
0.0
 11
317.5
 21
254
 31
0.0
  0
LINE
  8
0
 10
317.5
 20
254
 30
0.0
 11
381
 21
190.5
 31
0.0
  0
LINE
  8
0
 10
381
 20
190.5
 30
0.0
 11
444.5
 21
127
 31
0.0
  0
LINE
  8
0
 10
444.5
 20
127
 30
0.0
 11
508
 21
63.5
 31
0.0
  0
LINE
  8
0
 10
508
 20
63.5
 30
0.0
 11
444.5
 21
1.525879e-05
 31
0.0
  0
LINE
  8
0
 10
444.5
 20
1.525879e-05
 30
0.0
 11
381
 21
-63.5
 31
0.0
  0
LINE
  8
0
 10
381
 20
-63.5
 30
0.0
 11
317.5
 21
-127
 31
0.0
  0
LINE
  8
0
 10
317.5
 20
-127
 30
0.0
 11
254
 21
-190.5
 31
0.0
  0
LINE
  8
0
 10
254
 20
-190.5
 30
0.0
 11
190.5
 21
-254
 31
0.0
  0
LINE
  8
0
 10
190.5
 20
-254
 30
0.0
 11
127
 21
-190.5
 31
0.0
  0
LINE
  8
0
 10
127
 20
-190.5
 30
0.0
 11
63.50002
 21
-127
 31
0.0
  0
LINE
  8
0
 10
63.50002
 20
-127
 30
0.0
 11
127
 21
-63.5
 31
0.0
  0
LINE
  8
0
 10
127
 20
-63.5
 30
0.0
 11
190.5
 21
1.525879e-05
 31
0.0
  0
LINE
  8
0
 10
190.5
 20
1.525879e-05
 30
0.0
 11
254
 21
63.5
 31
0.0
  0
LINE
  8
0
 10
254
 20
63.5
 30
0.0
 11
317.5
 21
127
 31
0.0
  0
LINE
  8
0
 10
317.5
 20
127
 30
0.0
 11
381
 21
190.5
 31
0.0
  0
LINE
  8
0
 10
381
 20
190.5
 30
0.0
 11
444.5
 21
254
 31
0.0
  0
LINE
  8
0
 10
444.5
 20
254
 30
0.0
 11
508
 21
190.5
 31
0.0
  0
LINE
  8
0
 10
508
 20
190.5
 30
0.0
 11
444.5
 21
127
 31
0.0
  0
LINE
  8
0
 10
444.5
 20
127
 30
0.0
 11
381
 21
63.5
 31
0.0
  0
LINE
  8
0
 10
381
 20
63.5
 30
0.0
 11
317.5
 21
1.525879e-05
 31
0.0
  0
LINE
  8
0
 10
317.5
 20
1.525879e-05
 30
0.0
 11
254
 21
-63.5
 31
0.0
  0
LINE
  8
0
 10
254
 20
-63.5
 30
0.0
 11
190.5
 21
-127
 31
0.0
  0
LINE
  8
0
 10
190.5
 20
-127
 30
0.0
 11
127
 21
-190.5
 31
0.0
  0
LINE
  8
0
 10
127
 20
-190.5
 30
0.0
 11
63.50002
 21
-254
 31
0.0
  0
LINE
  8
0
 10
63.50002
 20
-254
 30
0.0
 11
2.670288e-05
 21
-190.5
 31
0.0
  0
LINE
  8
0
 10
2.670288e-05
 20
-190.5
 30
0.0
 11
63.50002
 21
-127
 31
0.0
  0
LINE
  8
0
 10
63.50002
 20
-127
 30
0.0
 11
2.670288e-05
 21
-63.5
 31
0.0
  0
LINE
  8
0
 10
2.670288e-05
 20
-63.5
 30
0.0
 11
63.50002
 21
1.525879e-05
 31
0.0
  0
LINE
  8
0
 10
63.50002
 20
1.525879e-05
 30
0.0
 11
2.670288e-05
 21
63.5
 31
0.0
  0
LINE
  8
0
 10
2.670288e-05
 20
63.5
 30
0.0
 11
63.50002
 21
127
 31
0.0
  0
LINE
  8
0
 10
63.50002
 20
127
 30
0.0
 11
2.670288e-05
 21
190.5
 31
0.0
  0
LINE
  8
0
 10
2.670288e-05
 20
190.5
 30
0.0
 11
63.47252
 21
253.87
 31
0.0
  0
LINE
  8
0
 10
63.47252
 20
253.87
 30
0.0
 11
0.05501907
 21
190.57
 31
0.0
  0
LINE
  8
0
 10
0.05501907
 20
190.57
 30
0.0
 11
63.50002
 21
127
 31
0.0
  0
LINE
  8
0
 10
63.50002
 20
127
 30
0.0
 11
2.670288e-05
 21
63.5
 31
0.0
  0
LINE
  8
0
 10
2.670288e-05
 20
63.5
 30
0.0
 11
63.50002
 21
1.525879e-05
 31
0.0
  0
LINE
  8
0
 10
63.50002
 20
1.525879e-05
 30
0.0
 11
2.670288e-05
 21
-63.5
 31
0.0
  0
LINE
  8
0
 10
2.670288e-05
 20
-63.5
 30
0.0
 11
63.50002
 21
-127
 31
0.0
  0
LINE
  8
0
 10
63.50002
 20
-127
 30
0.0
 11
2.670288e-05
 21
-190.5
 31
0.0
  0
LINE
  8
0
 10
2.670288e-05
 20
-190.5
 30
0.0
 11
63.50002
 21
-254
 31
0.0
  0
CIRCLE
  8
0
 10
1000
 20
7000
 30
0.0
 40
50
  0
CIRCLE
  8
0
 10
2000
 20
7000
 30
0.0
 40
50
  0
CIRCLE
  8
0
 10
18000
 20
8000
 30
0.0
 40
50
  0
CIRCLE
  8
0
 10
100
 20
100
 30
0.0
 40
128
  0
CIRCLE
  8
0
 10
200
 20
200
 30
0.0
 40
180
  0
CIRCLE
  8
0
 10
300
 20
300
 30
0.0
 40
190
  0
CIRCLE
  8
0
 10
350
 20
350
 30
0.0
 40
201
  0
CIRCLE
  8
0
 10
360
 20
360
 30
0.0
 40
202
  0
CIRCLE
  8
0
 10
370
 20
370
 30
0.0
 40
200
  0
ENDSEC
  0
EOF
