  0
SECTION
  2
ENTITIES
  0
ARC
  8
0
 10
4678.276
 20
2286.114
 30
0.0
 40
285.1984
 50
28.0073
 51
85.45775
  0
ARC
  8
0
 10
4798.302
 20
2341.307
 30
0.0
 40
153.5073
 50
278.4473
 51
30.85878
  0
ARC
  8
0
 10
4951.337
 20
2264.027
 30
0.0
 40
150.2854
 50
209.744
 51
330.256
  0
ARC
  8
0
 10
4808.921
 20
2230
 30
0.0
 40
275.8948
 50
351.5499
 51
11.0942
  0
ARC
  8
0
 10
4712.052
 20
2191.814
 30
0.0
 40
378.7701
 50
13.9447
 51
91.69286
  0
ARC
  8
0
 10
4712.052
 20
2191.814
 30
0.0
 40
378.7701
 50
13.9447
 51
91.69286
  0
ARC
  8
0
 10
4808.921
 20
2230
 30
0.0
 40
275.8948
 50
351.5499
 51
11.0942
  0
ARC
  8
0
 10
5212.304
 20
2114.903
 30
0.0
 40
150.2854
 50
29.74398
 51
150.256
  0
ARC
  8
0
 10
5365.338
 20
2037.621
 30
0.0
 40
153.5073
 50
98.44735
 51
210.8588
  0
ARC
  8
0
 10
5485.354
 20
2092.806
 30
0.0
 40
285.1984
 50
208.0073
 51
265.4578
  0
ARC
  8
0
 10
5451.588
 20
2187.104
 30
0.0
 40
378.7701
 50
193.9447
 51
271.6928
  0
ARC
  8
0
 10
5354.719
 20
2148.919
 30
0.0
 40
275.8948
 50
171.5499
 51
191.0942
  0
ARC
  8
0
 10
5354.719
 20
2148.919
 30
0.0
 40
275.8948
 50
171.5499
 51
191.0942
  0
ARC
  8
0
 10
5451.588
 20
2187.104
 30
0.0
 40
378.7701
 50
193.9447
 51
271.6928
  0
ARC
  8
0
 10
5178.47
 20
1831.025
 30
0.0
 40
285.1984
 50
298.0198
 51
355.4702
  0
ARC
  8
0
 10
5233.683
 20
1711.018
 30
0.0
 40
153.5073
 50
188.4598
 51
300.8712
  0
ARC
  8
0
 10
5156.431
 20
1557.965
 30
0.0
 40
150.2854
 50
119.7564
 51
240.2684
  0
ARC
  8
0
 10
5122.407
 20
1700.299
 30
0.0
 40
275.8948
 50
261.5747
 51
281.119
  0
ARC
  8
0
 10
5084.168
 20
1797.228
 30
0.0
 40
378.7701
 50
283.9571
 51
1.705283
  0
ARC
  8
0
 10
5084.168
 20
1797.228
 30
0.0
 40
378.7701
 50
283.9571
 51
1.705283
  0
ARC
  8
0
 10
5122.407
 20
1700.299
 30
0.0
 40
275.8948
 50
261.5747
 51
281.119
  0
ARC
  8
0
 10
5007.371
 20
1296.964
 30
0.0
 40
150.2854
 50
299.7564
 51
60.26845
  0
ARC
  8
0
 10
4930.118
 20
1143.911
 30
0.0
 40
153.5073
 50
8.459774
 51
120.8712
  0
ARC
  8
0
 10
4985.332
 20
1023.905
 30
0.0
 40
285.1984
 50
118.0197
 51
175.4702
  0
ARC
  8
0
 10
5079.628
 20
1057.69
 30
0.0
 40
378.7701
 50
103.9571
 51
181.7053
  0
ARC
  8
0
 10
5041.415
 20
1154.559
 30
0.0
 40
275.8948
 50
81.56232
 51
101.1066
  0
ARC
  8
0
 10
5041.415
 20
1154.559
 30
0.0
 40
275.8948
 50
81.56232
 51
101.1066
  0
ARC
  8
0
 10
5079.628
 20
1057.69
 30
0.0
 40
378.7701
 50
103.9571
 51
181.7053
  0
CIRCLE
  8
0
 10
1000
 20
7000
 30
0.0
 40
100
  0
CIRCLE
  8
0
 10
2500
 20
8000
 30
0.0
 40
100
  0
CIRCLE
  8
0
 10
4000
 20
7000
 30
0.0
 40
100
  0
CIRCLE
  8
0
 10
100
 20
100
 30
0.0
 40
125
  0
CIRCLE
  8
0
 10
200
 20
200
 30
0.0
 40
200
  0
CIRCLE
  8
0
 10
300
 20
300
 30
0.0
 40
200
  0
CIRCLE
  8
0
 10
350
 20
350
 30
0.0
 40
200
  0
CIRCLE
  8
0
 10
360
 20
360
 30
0.0
 40
200
  0
CIRCLE
  8
0
 10
370
 20
370
 30
0.0
 40
200
  0
ENDSEC
  0
EOF
