  0
SECTION
  2
ENTITIES
  0
LINE
  8
0
 10
203.2
 20
203.2
 30
0.0
 11
203.2
 21
101.6
 31
0.0
  0
LINE
  8
0
 10
203.2
 20
101.6
 30
0.0
 11
101.6
 21
101.6
 31
0.0
  0
LINE
  8
0
 10
101.6
 20
101.6
 30
0.0
 11
0
 21
101.6
 31
0.0
  0
LINE
  8
0
 10
0
 20
101.6
 30
0.0
 11
-101.6
 21
101.6
 31
0.0
  0
LINE
  8
0
 10
-101.6
 20
101.6
 30
0.0
 11
-203.2
 21
101.6
 31
0.0
  0
LINE
  8
0
 10
-203.2
 20
101.6
 30
0.0
 11
-304.8
 21
101.6
 31
0.0
  0
LINE
  8
0
 10
-304.8
 20
101.6
 30
0.0
 11
-304.8
 21
0
 31
0.0
  0
LINE
  8
0
 10
-304.8
 20
0
 30
0.0
 11
-203.2
 21
0
 31
0.0
  0
LINE
  8
0
 10
-203.2
 20
0
 30
0.0
 11
-203.2
 21
101.6
 31
0.0
  0
LINE
  8
0
 10
-203.2
 20
101.6
 30
0.0
 11
-203.2
 21
203.2
 31
0.0
  0
LINE
  8
0
 10
-203.2
 20
203.2
 30
0.0
 11
-101.6
 21
203.2
 31
0.0
  0
LINE
  8
0
 10
-101.6
 20
203.2
 30
0.0
 11
-101.6
 21
101.6
 31
0.0
  0
LINE
  8
0
 10
-101.6
 20
101.6
 30
0.0
 11
-101.6
 21
0
 31
0.0
  0
LINE
  8
0
 10
-101.6
 20
0
 30
0.0
 11
0
 21
0
 31
0.0
  0
LINE
  8
0
 10
0
 20
0
 30
0.0
 11
0
 21
101.6
 31
0.0
  0
LINE
  8
0
 10
0
 20
101.6
 30
0.0
 11
0
 21
203.2
 31
0.0
  0
LINE
  8
0
 10
0
 20
203.2
 30
0.0
 11
101.6
 21
203.2
 31
0.0
  0
LINE
  8
0
 10
101.6
 20
203.2
 30
0.0
 11
101.6
 21
101.6
 31
0.0
  0
LINE
  8
0
 10
101.6
 20
101.6
 30
0.0
 11
101.6
 21
0
 31
0.0
  0
LINE
  8
0
 10
101.6
 20
0
 30
0.0
 11
203.2
 21
0
 31
0.0
  0
CIRCLE
  8
0
 10
1000
 20
7000
 30
0.0
 40
50
  0
CIRCLE
  8
0
 10
2000
 20
7000
 30
0.0
 40
50
  0
CIRCLE
  8
0
 10
3000
 20
7000
 30
0.0
 40
50
  0
CIRCLE
  8
0
 10
100
 20
100
 30
0.0
 40
128
  0
CIRCLE
  8
0
 10
200
 20
200
 30
0.0
 40
177
  0
CIRCLE
  8
0
 10
300
 20
300
 30
0.0
 40
200
  0
CIRCLE
  8
0
 10
350
 20
350
 30
0.0
 40
205
  0
CIRCLE
  8
0
 10
360
 20
360
 30
0.0
 40
205
  0
CIRCLE
  8
0
 10
370
 20
370
 30
0.0
 40
200
  0
ENDSEC
  0
EOF
