  0
SECTION
  2
ENTITIES
  0
LINE
  8
0
 10
71.12
 20
71.12
 30
0.0
 11
71.12
 21
-1.270004
 31
0.0
  0
LINE
  8
0
 10
71.12
 20
-1.270004
 30
0.0
 11
-1.270004
 21
-1.270004
 31
0.0
  0
LINE
  8
0
 10
-1.270004
 20
-1.270004
 30
0.0
 11
-73.66
 21
-1.270004
 31
0.0
  0
LINE
  8
0
 10
-73.66
 20
-1.270004
 30
0.0
 11
-146.05
 21
-1.270004
 31
0.0
  0
LINE
  8
0
 10
-146.05
 20
-1.270004
 30
0.0
 11
-218.44
 21
-1.270004
 31
0.0
  0
LINE
  8
0
 10
-218.44
 20
-1.270004
 30
0.0
 11
-290.83
 21
-1.270004
 31
0.0
  0
LINE
  8
0
 10
-290.83
 20
-1.270004
 30
0.0
 11
-363.22
 21
-1.270004
 31
0.0
  0
LINE
  8
0
 10
-363.22
 20
-1.270004
 30
0.0
 11
-435.61
 21
-1.270004
 31
0.0
  0
LINE
  8
0
 10
-435.61
 20
-1.270004
 30
0.0
 11
-435.61
 21
-73.66
 31
0.0
  0
LINE
  8
0
 10
-435.61
 20
-73.66
 30
0.0
 11
-363.22
 21
-73.66
 31
0.0
  0
LINE
  8
0
 10
-363.22
 20
-73.66
 30
0.0
 11
-363.22
 21
-1.270004
 31
0.0
  0
LINE
  8
0
 10
-363.22
 20
-1.270004
 30
0.0
 11
-363.22
 21
71.12
 31
0.0
  0
LINE
  8
0
 10
-363.22
 20
71.12
 30
0.0
 11
-290.83
 21
71.12
 31
0.0
  0
LINE
  8
0
 10
-290.83
 20
71.12
 30
0.0
 11
-290.83
 21
-1.270004
 31
0.0
  0
LINE
  8
0
 10
-290.83
 20
-1.270004
 30
0.0
 11
-290.83
 21
-73.66
 31
0.0
  0
LINE
  8
0
 10
-290.83
 20
-73.66
 30
0.0
 11
-218.44
 21
-73.66
 31
0.0
  0
LINE
  8
0
 10
-218.44
 20
-73.66
 30
0.0
 11
-218.44
 21
-1.270004
 31
0.0
  0
LINE
  8
0
 10
-218.44
 20
-1.270004
 30
0.0
 11
-218.44
 21
71.12
 31
0.0
  0
LINE
  8
0
 10
-218.44
 20
71.12
 30
0.0
 11
-146.05
 21
71.12
 31
0.0
  0
LINE
  8
0
 10
-146.05
 20
71.12
 30
0.0
 11
-146.05
 21
-1.270004
 31
0.0
  0
LINE
  8
0
 10
-146.05
 20
-1.270004
 30
0.0
 11
-146.05
 21
-73.66
 31
0.0
  0
LINE
  8
0
 10
-146.05
 20
-73.66
 30
0.0
 11
-73.66
 21
-73.66
 31
0.0
  0
LINE
  8
0
 10
-73.66
 20
-73.66
 30
0.0
 11
-73.66
 21
-1.270004
 31
0.0
  0
LINE
  8
0
 10
-73.66
 20
-1.270004
 30
0.0
 11
-73.66
 21
71.12
 31
0.0
  0
LINE
  8
0
 10
-73.66
 20
71.12
 30
0.0
 11
-1.270004
 21
71.12
 31
0.0
  0
LINE
  8
0
 10
-1.270004
 20
71.12
 30
0.0
 11
-1.270004
 21
-1.270004
 31
0.0
  0
LINE
  8
0
 10
-1.270004
 20
-1.270004
 30
0.0
 11
-1.270004
 21
-73.66
 31
0.0
  0
LINE
  8
0
 10
-1.270004
 20
-73.66
 30
0.0
 11
71.12
 21
-73.66
 31
0.0
  0
CIRCLE
  8
0
 10
100
 20
100
 30
0.0
 40
128
  0
CIRCLE
  8
0
 10
200
 20
200
 30
0.0
 40
180
  0
CIRCLE
  8
0
 10
300
 20
300
 30
0.0
 40
200
  0
CIRCLE
  8
0
 10
350
 20
350
 30
0.0
 40
203
  0
CIRCLE
  8
0
 10
360
 20
360
 30
0.0
 40
204
  0
CIRCLE
  8
0
 10
370
 20
370
 30
0.0
 40
200
  0
ENDSEC
  0
EOF
