  0
SECTION
  2
ENTITIES
  0
ARC
  8
0
 10
-56.12306
 20
542.1757
 30
0.0
 40
312.0023
 50
292.5376
 51
353.7117
  0
ARC
  8
0
 10
183.0483
 20
-34.17302
 30
0.0
 40
312.0023
 50
112.5373
 51
173.7114
  0
ARC
  8
0
 10
183.0489
 20
34.17426
 30
0.0
 40
312.0023
 50
186.2878
 51
247.4619
  0
ARC
  8
0
 10
-56.13253
 20
-542.1703
 30
0.0
 40
312.0023
 50
6.287575
 51
67.46171
  0
ARC
  8
0
 10
564.1334
 20
-473.8259
 30
0.0
 40
312.0023
 50
186.2884
 51
247.4624
  0
ARC
  8
0
 10
324.9597
 20
-1050.174
 30
0.0
 40
312.0023
 50
6.288497
 51
67.46262
  0
ARC
  8
0
 10
324.9594
 20
-981.8264
 30
0.0
 40
312.0023
 50
292.5381
 51
353.7122
  0
ARC
  8
0
 10
564.1384
 20
-1558.172
 30
0.0
 40
312.0023
 50
112.5381
 51
173.7122
  0
CIRCLE
  8
0
 10
1000
 20
6000
 30
0.0
 40
100
  0
CIRCLE
  8
0
 10
1000
 20
8000
 30
0.0
 40
100
  0
CIRCLE
  8
0
 10
2500
 20
6000
 30
0.0
 40
100
  0
CIRCLE
  8
0
 10
2500
 20
8000
 30
0.0
 40
100
  0
CIRCLE
  8
0
 10
4000
 20
6000
 30
0.0
 40
100
  0
CIRCLE
  8
0
 10
4000
 20
8000
 30
0.0
 40
100
  0
CIRCLE
  8
0
 10
100
 20
100
 30
0.0
 40
128
  0
CIRCLE
  8
0
 10
200
 20
200
 30
0.0
 40
193
  0
CIRCLE
  8
0
 10
300
 20
300
 30
0.0
 40
172
  0
CIRCLE
  8
0
 10
350
 20
350
 30
0.0
 40
202
  0
CIRCLE
  8
0
 10
360
 20
360
 30
0.0
 40
200
  0
CIRCLE
  8
0
 10
370
 20
370
 30
0.0
 40
200
  0
ENDSEC
  0
EOF
