  0
SECTION
  2
ENTITIES
  0
ARC
  8
0
 10
104.7712
 20
403.244
 30
0.0
 40
277.1332
 50
274.6005
 51
355.3975
  0
ARC
  8
0
 10
149.2254
 20
-149.2356
 30
0.0
 40
277.1332
 50
94.60033
 51
175.3974
  0
ARC
  8
0
 10
-403.2535
 20
-104.7599
 30
0.0
 40
277.1332
 50
274.6005
 51
355.3975
  0
ARC
  8
0
 10
-358.7994
 20
-657.2394
 30
0.0
 40
277.1332
 50
94.60033
 51
175.3974
  0
ARC
  8
0
 10
-358.7995
 20
-612.7581
 30
0.0
 40
277.1332
 50
184.6034
 51
265.4004
  0
ARC
  8
0
 10
-403.2484
 20
-1165.238
 30
0.0
 40
277.1332
 50
4.603284
 51
85.40028
  0
ARC
  8
0
 10
149.2301
 20
-1120.757
 30
0.0
 40
277.1332
 50
184.6034
 51
265.4004
  0
ARC
  8
0
 10
104.7811
 20
-1673.237
 30
0.0
 40
277.1332
 50
4.603272
 51
85.40034
  0
CIRCLE
  8
0
 10
1000
 20
6000
 30
0.0
 40
100
  0
CIRCLE
  8
0
 10
1000
 20
8000
 30
0.0
 40
100
  0
CIRCLE
  8
0
 10
3000
 20
6000
 30
0.0
 40
100
  0
CIRCLE
  8
0
 10
3000
 20
8000
 30
0.0
 40
100
  0
CIRCLE
  8
0
 10
5000
 20
6000
 30
0.0
 40
100
  0
CIRCLE
  8
0
 10
5000
 20
8000
 30
0.0
 40
100
  0
CIRCLE
  8
0
 10
100
 20
100
 30
0.0
 40
128
  0
CIRCLE
  8
0
 10
200
 20
200
 30
0.0
 40
186
  0
CIRCLE
  8
0
 10
300
 20
300
 30
0.0
 40
158
  0
CIRCLE
  8
0
 10
350
 20
350
 30
0.0
 40
200
  0
CIRCLE
  8
0
 10
360
 20
360
 30
0.0
 40
200
  0
CIRCLE
  8
0
 10
370
 20
370
 30
0.0
 40
200
  0
ENDSEC
  0
EOF
