  0
SECTION
  2
ENTITIES
  0
ARC
  8
0
 10
5050.853
 20
1610.388
 30
0.0
 40
171.8394
 50
63.85986
 51
187.2155
  0
ARC
  8
0
 10
5224.586
 20
1994.378
 30
0.0
 40
249.7688
 50
246.8895
 51
347.5427
  0
ARC
  8
0
 10
5412.158
 20
1818.385
 30
0.0
 40
134.48
 50
294.7615
 51
65.23851
  0
ARC
  8
0
 10
5412.158
 20
1574.154
 30
0.0
 40
134.48
 50
294.7615
 51
65.23851
  0
ARC
  8
0
 10
5412.158
 20
1329.922
 30
0.0
 40
134.48
 50
294.7615
 51
65.23851
  0
ARC
  8
0
 10
5224.586
 20
1153.929
 30
0.0
 40
249.7688
 50
12.45731
 51
113.1105
  0
ARC
  8
0
 10
5050.853
 20
1537.919
 30
0.0
 40
171.8394
 50
172.7845
 51
296.1401
  0
ARC
  8
0
 10
4936.698
 20
1437.384
 30
0.0
 40
134.48
 50
114.7615
 51
245.2385
  0
ARC
  8
0
 10
4936.698
 20
1193.153
 30
0.0
 40
134.48
 50
114.7615
 51
245.2385
  0
ARC
  8
0
 10
4936.698
 20
948.9211
 30
0.0
 40
134.48
 50
114.7615
 51
245.2385
  0
CIRCLE
  8
0
 10
1000
 20
7000
 30
0.0
 40
100
  0
CIRCLE
  8
0
 10
2500
 20
7000
 30
0.0
 40
100
  0
CIRCLE
  8
0
 10
100
 20
100
 30
0.0
 40
125
  0
CIRCLE
  8
0
 10
200
 20
200
 30
0.0
 40
200
  0
CIRCLE
  8
0
 10
300
 20
300
 30
0.0
 40
200
  0
CIRCLE
  8
0
 10
350
 20
350
 30
0.0
 40
200
  0
CIRCLE
  8
0
 10
360
 20
360
 30
0.0
 40
200
  0
CIRCLE
  8
0
 10
370
 20
370
 30
0.0
 40
200
  0
ENDSEC
  0
EOF
