  0
SECTION
  2
ENTITIES
  0
ARC
  8
0
 10
-379.5531
 20
1059.902
 30
0.0
 40
382.396
 50
180.2076
 51
269.7889
  0
ARC
  8
0
 10
-382.3831
 20
295.1153
 30
0.0
 40
382.396
 50
0.2058941
 51
89.78721
  0
ARC
  8
0
 10
1.432152
 20
678.9017
 30
0.0
 40
382.396
 50
180.2085
 51
269.7899
  0
ARC
  8
0
 10
-763.3547
 20
678.9275
 30
0.0
 40
382.396
 50
270.2061
 51
359.7875
  0
ARC
  8
0
 10
-763.3807
 20
-85.87716
 30
0.0
 40
382.396
 50
0.2083948
 51
89.78973
  0
ARC
  8
0
 10
1.4067
 20
-85.90289
 30
0.0
 40
382.396
 50
90.20649
 51
179.7878
  0
ARC
  8
0
 10
-382.3828
 20
297.9065
 30
0.0
 40
382.396
 50
270.2094
 51
359.7907
  0
ARC
  8
0
 10
-379.5891
 20
-466.8803
 30
0.0
 40
382.396
 50
90.20947
 51
179.7907
  0
CIRCLE
  8
0
 10
1000
 20
7000
 30
0.0
 40
100
  0
CIRCLE
  8
0
 10
1000
 20
8000
 30
0.0
 40
100
  0
CIRCLE
  8
0
 10
2500
 20
7000
 30
0.0
 40
100
  0
CIRCLE
  8
0
 10
2500
 20
8000
 30
0.0
 40
100
  0
CIRCLE
  8
0
 10
4000
 20
7000
 30
0.0
 40
100
  0
CIRCLE
  8
0
 10
4000
 20
8000
 30
0.0
 40
100
  0
CIRCLE
  8
0
 10
100
 20
100
 30
0.0
 40
128
  0
CIRCLE
  8
0
 10
200
 20
200
 30
0.0
 40
194
  0
CIRCLE
  8
0
 10
300
 20
300
 30
0.0
 40
174
  0
CIRCLE
  8
0
 10
350
 20
350
 30
0.0
 40
200
  0
CIRCLE
  8
0
 10
360
 20
360
 30
0.0
 40
200
  0
CIRCLE
  8
0
 10
370
 20
370
 30
0.0
 40
200
  0
ENDSEC
  0
EOF
