  0
SECTION
  2
ENTITIES
  0
LINE
  8
0
 10
4228.023
 20
2483.652
 30
0.0
 11
4228.023
 21
2222.652
 31
0.0
  0
ARC
  8
0
 10
4348.023
 20
2222.652
 30
0.0
 40
119.9999
 50
180
 51
270
  0
LINE
  8
0
 10
4348.023
 20
2102.652
 30
0.0
 11
4609.023
 21
2102.652
 31
0.0
  0
LINE
  8
0
 10
4609.023
 20
2102.652
 30
0.0
 11
4609.023
 21
2363.652
 31
0.0
  0
ARC
  8
0
 10
4489.023
 20
2363.652
 30
0.0
 40
119.9999
 50
0
 51
89.99999
  0
LINE
  8
0
 10
4489.023
 20
2483.652
 30
0.0
 11
4228.023
 21
2483.652
 31
0.0
  0
LINE
  8
0
 10
4228.023
 20
2483.652
 30
0.0
 11
4489.023
 21
2483.652
 31
0.0
  0
ARC
  8
0
 10
4489.023
 20
2363.652
 30
0.0
 40
119.9999
 50
0
 51
89.99999
  0
LINE
  8
0
 10
4609.023
 20
2363.652
 30
0.0
 11
4609.023
 21
2102.652
 31
0.0
  0
LINE
  8
0
 10
4609.023
 20
2102.652
 30
0.0
 11
4799.523
 21
2102.652
 31
0.0
  0
LINE
  8
0
 10
4799.523
 20
2102.652
 30
0.0
 11
4990.023
 21
2102.652
 31
0.0
  0
LINE
  8
0
 10
4990.023
 20
2102.652
 30
0.0
 11
5251.022
 21
2102.652
 31
0.0
  0
ARC
  8
0
 10
5251.023
 20
2222.652
 30
0.0
 40
119.9999
 50
270
 51
0
  0
LINE
  8
0
 10
5371.023
 20
2222.652
 30
0.0
 11
5371.023
 21
2483.652
 31
0.0
  0
LINE
  8
0
 10
5371.023
 20
2483.652
 30
0.0
 11
5110.023
 21
2483.652
 31
0.0
  0
ARC
  8
0
 10
5110.023
 20
2363.652
 30
0.0
 40
119.9999
 50
89.99999
 51
180
  0
LINE
  8
0
 10
4990.023
 20
2363.652
 30
0.0
 11
4990.023
 21
2102.652
 31
0.0
  0
LINE
  8
0
 10
4990.023
 20
2102.652
 30
0.0
 11
4990.023
 21
1912.152
 31
0.0
  0
LINE
  8
0
 10
4990.023
 20
1912.152
 30
0.0
 11
4990.023
 21
1721.652
 31
0.0
  0
LINE
  8
0
 10
4990.023
 20
1721.652
 30
0.0
 11
4990.023
 21
1460.652
 31
0.0
  0
ARC
  8
0
 10
5110.023
 20
1460.652
 30
0.0
 40
119.9999
 50
180
 51
270
  0
LINE
  8
0
 10
5110.022
 20
1340.652
 30
0.0
 11
5371.023
 21
1340.652
 31
0.0
  0
LINE
  8
0
 10
5371.023
 20
1340.652
 30
0.0
 11
5371.023
 21
1601.652
 31
0.0
  0
ARC
  8
0
 10
5251.023
 20
1601.652
 30
0.0
 40
119.9999
 50
0
 51
89.99999
  0
LINE
  8
0
 10
5251.023
 20
1721.652
 30
0.0
 11
4990.023
 21
1721.652
 31
0.0
  0
LINE
  8
0
 10
4990.023
 20
1721.652
 30
0.0
 11
4799.523
 21
1721.652
 31
0.0
  0
LINE
  8
0
 10
4799.523
 20
1721.652
 30
0.0
 11
4609.023
 21
1721.652
 31
0.0
  0
LINE
  8
0
 10
4609.023
 20
1721.652
 30
0.0
 11
4609.023
 21
1912.152
 31
0.0
  0
LINE
  8
0
 10
4609.023
 20
1912.152
 30
0.0
 11
4609.023
 21
2102.652
 31
0.0
  0
LINE
  8
0
 10
4609.023
 20
2102.652
 30
0.0
 11
4609.023
 21
1912.152
 31
0.0
  0
LINE
  8
0
 10
4609.023
 20
1912.152
 30
0.0
 11
4609.023
 21
1721.652
 31
0.0
  0
LINE
  8
0
 10
4609.023
 20
1721.652
 30
0.0
 11
4348.023
 21
1721.652
 31
0.0
  0
ARC
  8
0
 10
4348.023
 20
1601.652
 30
0.0
 40
119.9999
 50
89.99999
 51
180
  0
LINE
  8
0
 10
4228.023
 20
1601.652
 30
0.0
 11
4228.023
 21
1340.652
 31
0.0
  0
LINE
  8
0
 10
4228.023
 20
1340.652
 30
0.0
 11
4489.022
 21
1340.652
 31
0.0
  0
ARC
  8
0
 10
4489.023
 20
1460.652
 30
0.0
 40
119.9999
 50
270
 51
0
  0
LINE
  8
0
 10
4609.023
 20
1460.652
 30
0.0
 11
4609.023
 21
1721.652
 31
0.0
  0
LINE
  8
0
 10
4609.023
 20
1721.652
 30
0.0
 11
4609.023
 21
1460.652
 31
0.0
  0
ARC
  8
0
 10
4489.023
 20
1460.652
 30
0.0
 40
119.9999
 50
270
 51
0
  0
LINE
  8
0
 10
4489.022
 20
1340.652
 30
0.0
 11
4228.023
 21
1340.652
 31
0.0
  0
LINE
  8
0
 10
4228.023
 20
1340.652
 30
0.0
 11
4037.523
 21
1340.652
 31
0.0
  0
LINE
  8
0
 10
4037.523
 20
1340.652
 30
0.0
 11
3847.023
 21
1340.652
 31
0.0
  0
LINE
  8
0
 10
3847.023
 20
1340.652
 30
0.0
 11
3847.023
 21
1150.152
 31
0.0
  0
LINE
  8
0
 10
3847.023
 20
1150.152
 30
0.0
 11
3847.023
 21
959.6519
 31
0.0
  0
LINE
  8
0
 10
3847.023
 20
959.6519
 30
0.0
 11
4037.523
 21
959.6519
 31
0.0
  0
LINE
  8
0
 10
4037.523
 20
959.6519
 30
0.0
 11
4228.023
 21
959.6519
 31
0.0
  0
LINE
  8
0
 10
4228.023
 20
959.6519
 30
0.0
 11
4228.023
 21
1150.152
 31
0.0
  0
LINE
  8
0
 10
4228.023
 20
1150.152
 30
0.0
 11
4228.023
 21
1340.652
 31
0.0
  0
LINE
  8
0
 10
4228.023
 20
1340.652
 30
0.0
 11
4228.023
 21
1150.152
 31
0.0
  0
LINE
  8
0
 10
4228.023
 20
1150.152
 30
0.0
 11
4228.023
 21
959.6519
 31
0.0
  0
CIRCLE
  8
0
 10
1000
 20
7000
 30
0.0
 40
100
  0
CIRCLE
  8
0
 10
4000
 20
7000
 30
0.0
 40
100
  0
CIRCLE
  8
0
 10
7000
 20
7000
 30
0.0
 40
100
  0
CIRCLE
  8
0
 10
100
 20
100
 30
0.0
 40
132
  0
CIRCLE
  8
0
 10
200
 20
200
 30
0.0
 40
201
  0
CIRCLE
  8
0
 10
300
 20
300
 30
0.0
 40
210
  0
CIRCLE
  8
0
 10
350
 20
350
 30
0.0
 40
200
  0
CIRCLE
  8
0
 10
360
 20
360
 30
0.0
 40
200
  0
CIRCLE
  8
0
 10
370
 20
370
 30
0.0
 40
200
  0
ENDSEC
  0
EOF
