  0
SECTION
  2
ENTITIES
  0
ARC
  8
0
 10
-919.7085
 20
413.3463
 30
0.0
 40
1174.155
 50
339.388
 51
358.4215
  0
ARC
  8
0
 10
1278.273
 20
-413.3568
 30
0.0
 40
1174.155
 50
159.3877
 51
178.4212
  0
ARC
  8
0
 10
1278.273
 20
-348.6508
 30
0.0
 40
1174.155
 50
181.5789
 51
200.6124
  0
ARC
  8
0
 10
-919.7084
 20
-1175.354
 30
0.0
 40
1174.155
 50
1.578806
 51
20.61226
  0
CIRCLE
  8
0
 10
1000
 20
7000
 30
0.0
 40
100
  0
CIRCLE
  8
0
 10
1500
 20
7000
 30
0.0
 40
100
  0
CIRCLE
  8
0
 10
2500
 20
7000
 30
0.0
 40
100
  0
CIRCLE
  8
0
 10
3000
 20
7000
 30
0.0
 40
100
  0
CIRCLE
  8
0
 10
4000
 20
7000
 30
0.0
 40
100
  0
CIRCLE
  8
0
 10
4500
 20
7000
 30
0.0
 40
100
  0
CIRCLE
  8
0
 10
100
 20
100
 30
0.0
 40
128
  0
CIRCLE
  8
0
 10
200
 20
200
 30
0.0
 40
200
  0
CIRCLE
  8
0
 10
300
 20
300
 30
0.0
 40
200
  0
CIRCLE
  8
0
 10
350
 20
350
 30
0.0
 40
200
  0
CIRCLE
  8
0
 10
360
 20
360
 30
0.0
 40
200
  0
CIRCLE
  8
0
 10
370
 20
370
 30
0.0
 40
200
  0
ENDSEC
  0
EOF
