  0
SECTION
  2
ENTITIES
  0
LINE
  8
0
 10
0
 20
117.3116
 30
0.0
 11
0
 21
63.97161
 31
0.0
  0
LINE
  8
0
 10
0
 20
63.97161
 30
0.0
 11
63.02839
 21
63.97161
 31
0.0
  0
LINE
  8
0
 10
63.02839
 20
63.97161
 30
0.0
 11
126.0568
 21
63.97161
 31
0.0
  0
LINE
  8
0
 10
126.0568
 20
63.97161
 30
0.0
 11
189.0852
 21
63.97161
 31
0.0
  0
LINE
  8
0
 10
189.0852
 20
63.97161
 30
0.0
 11
252.1136
 21
63.97161
 31
0.0
  0
LINE
  8
0
 10
252.1136
 20
63.97161
 30
0.0
 11
252.1136
 21
10.63159
 31
0.0
  0
LINE
  8
0
 10
252.1136
 20
10.63159
 30
0.0
 11
189.0852
 21
10.63159
 31
0.0
  0
LINE
  8
0
 10
189.0852
 20
10.63159
 30
0.0
 11
126.0568
 21
10.63159
 31
0.0
  0
LINE
  8
0
 10
126.0568
 20
10.63159
 30
0.0
 11
63.02839
 21
10.63159
 31
0.0
  0
LINE
  8
0
 10
63.02839
 20
10.63159
 30
0.0
 11
0
 21
10.63159
 31
0.0
  0
CIRCLE
  8
0
 10
1000
 20
7000
 30
0.0
 40
100
  0
CIRCLE
  8
0
 10
1500
 20
7000
 30
0.0
 40
100
  0
CIRCLE
  8
0
 10
100
 20
100
 30
0.0
 40
129
  0
CIRCLE
  8
0
 10
200
 20
200
 30
0.0
 40
194
  0
CIRCLE
  8
0
 10
300
 20
300
 30
0.0
 40
200
  0
CIRCLE
  8
0
 10
350
 20
350
 30
0.0
 40
204
  0
CIRCLE
  8
0
 10
360
 20
360
 30
0.0
 40
206
  0
CIRCLE
  8
0
 10
370
 20
370
 30
0.0
 40
200
  0
ENDSEC
  0
EOF
