  0
SECTION
  2
ENTITIES
  0
LINE
  8
0
 10
0
 20
31.75
 30
0.0
 11
0
 21
0
 31
0.0
  0
LINE
  8
0
 10
0
 20
0
 30
0.0
 11
31.75
 21
0
 31
0.0
  0
LINE
  8
0
 10
31.75
 20
0
 30
0.0
 11
31.75
 21
-31.75
 31
0.0
  0
LINE
  8
0
 10
31.75
 20
-31.75
 30
0.0
 11
63.5
 21
-31.75
 31
0.0
  0
LINE
  8
0
 10
63.5
 20
-31.75
 30
0.0
 11
63.5
 21
-63.5
 31
0.0
  0
LINE
  8
0
 10
63.5
 20
-63.5
 30
0.0
 11
95.25
 21
-63.5
 31
0.0
  0
LINE
  8
0
 10
95.25
 20
-63.5
 30
0.0
 11
95.25
 21
-95.25
 31
0.0
  0
LINE
  8
0
 10
95.25
 20
-95.25
 30
0.0
 11
127
 21
-95.25
 31
0.0
  0
LINE
  8
0
 10
127
 20
-95.25
 30
0.0
 11
127
 21
-127
 31
0.0
  0
LINE
  8
0
 10
127
 20
-127
 30
0.0
 11
158.75
 21
-127
 31
0.0
  0
LINE
  8
0
 10
158.75
 20
-127
 30
0.0
 11
158.75
 21
-158.75
 31
0.0
  0
LINE
  8
0
 10
158.75
 20
-158.75
 30
0.0
 11
190.5
 21
-158.75
 31
0.0
  0
LINE
  8
0
 10
190.5
 20
-158.75
 30
0.0
 11
190.5
 21
-190.5
 31
0.0
  0
LINE
  8
0
 10
190.5
 20
-190.5
 30
0.0
 11
222.25
 21
-190.5
 31
0.0
  0
LINE
  8
0
 10
222.25
 20
-190.5
 30
0.0
 11
222.25
 21
-222.25
 31
0.0
  0
LINE
  8
0
 10
222.25
 20
-222.25
 30
0.0
 11
254
 21
-222.25
 31
0.0
  0
LINE
  8
0
 10
254
 20
-222.25
 30
0.0
 11
254
 21
-254
 31
0.0
  0
LINE
  8
0
 10
254
 20
-254
 30
0.0
 11
285.75
 21
-254
 31
0.0
  0
LINE
  8
0
 10
285.75
 20
-254
 30
0.0
 11
285.75
 21
-285.75
 31
0.0
  0
LINE
  8
0
 10
285.75
 20
-285.75
 30
0.0
 11
317.5
 21
-285.75
 31
0.0
  0
LINE
  8
0
 10
317.5
 20
-285.75
 30
0.0
 11
317.5
 21
-317.5
 31
0.0
  0
LINE
  8
0
 10
317.5
 20
-317.5
 30
0.0
 11
349.25
 21
-317.5
 31
0.0
  0
LINE
  8
0
 10
349.25
 20
-317.5
 30
0.0
 11
349.25
 21
-349.25
 31
0.0
  0
LINE
  8
0
 10
349.25
 20
-349.25
 30
0.0
 11
381
 21
-349.25
 31
0.0
  0
LINE
  8
0
 10
381
 20
-349.25
 30
0.0
 11
381
 21
-381
 31
0.0
  0
LINE
  8
0
 10
381
 20
-381
 30
0.0
 11
412.75
 21
-381
 31
0.0
  0
LINE
  8
0
 10
412.75
 20
-381
 30
0.0
 11
412.75
 21
-412.75
 31
0.0
  0
LINE
  8
0
 10
412.75
 20
-412.75
 30
0.0
 11
444.5
 21
-412.75
 31
0.0
  0
LINE
  8
0
 10
444.5
 20
-412.75
 30
0.0
 11
444.5
 21
-444.5
 31
0.0
  0
LINE
  8
0
 10
444.5
 20
-444.5
 30
0.0
 11
476.25
 21
-444.5
 31
0.0
  0
LINE
  8
0
 10
476.25
 20
-444.5
 30
0.0
 11
476.25
 21
-476.25
 31
0.0
  0
LINE
  8
0
 10
476.25
 20
-476.25
 30
0.0
 11
508
 21
-476.25
 31
0.0
  0
LINE
  8
0
 10
508
 20
-476.25
 30
0.0
 11
508
 21
-508
 31
0.0
  0
LINE
  8
0
 10
508
 20
-508
 30
0.0
 11
539.75
 21
-508
 31
0.0
  0
LINE
  8
0
 10
539.75
 20
-508
 30
0.0
 11
539.75
 21
-539.75
 31
0.0
  0
LINE
  8
0
 10
539.75
 20
-539.75
 30
0.0
 11
571.5
 21
-539.75
 31
0.0
  0
LINE
  8
0
 10
571.5
 20
-539.75
 30
0.0
 11
571.5
 21
-571.5
 31
0.0
  0
LINE
  8
0
 10
571.5
 20
-571.5
 30
0.0
 11
603.25
 21
-571.5
 31
0.0
  0
LINE
  8
0
 10
603.25
 20
-571.5
 30
0.0
 11
603.25
 21
-603.25
 31
0.0
  0
LINE
  8
0
 10
603.25
 20
-603.25
 30
0.0
 11
635
 21
-603.25
 31
0.0
  0
LINE
  8
0
 10
635
 20
-603.25
 30
0.0
 11
635
 21
-635
 31
0.0
  0
LINE
  8
0
 10
635
 20
-635
 30
0.0
 11
666.75
 21
-635
 31
0.0
  0
LINE
  8
0
 10
666.75
 20
-635
 30
0.0
 11
666.75
 21
-666.75
 31
0.0
  0
LINE
  8
0
 10
666.75
 20
-666.75
 30
0.0
 11
698.5
 21
-666.75
 31
0.0
  0
LINE
  8
0
 10
698.5
 20
-666.75
 30
0.0
 11
698.5
 21
-698.5
 31
0.0
  0
LINE
  8
0
 10
698.5
 20
-698.5
 30
0.0
 11
730.25
 21
-698.5
 31
0.0
  0
LINE
  8
0
 10
730.25
 20
-698.5
 30
0.0
 11
730.25
 21
-730.25
 31
0.0
  0
LINE
  8
0
 10
730.25
 20
-730.25
 30
0.0
 11
762
 21
-730.25
 31
0.0
  0
LINE
  8
0
 10
762
 20
-730.25
 30
0.0
 11
730.25
 21
-730.25
 31
0.0
  0
LINE
  8
0
 10
730.25
 20
-730.25
 30
0.0
 11
730.25
 21
-762
 31
0.0
  0
LINE
  8
0
 10
730.25
 20
-762
 30
0.0
 11
698.5
 21
-762
 31
0.0
  0
LINE
  8
0
 10
698.5
 20
-762
 30
0.0
 11
698.5
 21
-793.75
 31
0.0
  0
LINE
  8
0
 10
698.5
 20
-793.75
 30
0.0
 11
666.75
 21
-793.75
 31
0.0
  0
LINE
  8
0
 10
666.75
 20
-793.75
 30
0.0
 11
666.75
 21
-825.5
 31
0.0
  0
LINE
  8
0
 10
666.75
 20
-825.5
 30
0.0
 11
635
 21
-825.5
 31
0.0
  0
LINE
  8
0
 10
635
 20
-825.5
 30
0.0
 11
635
 21
-857.25
 31
0.0
  0
LINE
  8
0
 10
635
 20
-857.25
 30
0.0
 11
603.25
 21
-857.25
 31
0.0
  0
LINE
  8
0
 10
603.25
 20
-857.25
 30
0.0
 11
603.25
 21
-889
 31
0.0
  0
LINE
  8
0
 10
603.25
 20
-889
 30
0.0
 11
571.5
 21
-889
 31
0.0
  0
LINE
  8
0
 10
571.5
 20
-889
 30
0.0
 11
571.5
 21
-920.75
 31
0.0
  0
LINE
  8
0
 10
571.5
 20
-920.75
 30
0.0
 11
539.75
 21
-920.75
 31
0.0
  0
LINE
  8
0
 10
539.75
 20
-920.75
 30
0.0
 11
539.75
 21
-952.5
 31
0.0
  0
LINE
  8
0
 10
539.75
 20
-952.5
 30
0.0
 11
508
 21
-952.5
 31
0.0
  0
LINE
  8
0
 10
508
 20
-952.5
 30
0.0
 11
508
 21
-984.25
 31
0.0
  0
LINE
  8
0
 10
508
 20
-984.25
 30
0.0
 11
476.25
 21
-984.25
 31
0.0
  0
LINE
  8
0
 10
476.25
 20
-984.25
 30
0.0
 11
476.25
 21
-1016
 31
0.0
  0
LINE
  8
0
 10
476.25
 20
-1016
 30
0.0
 11
444.5
 21
-1016
 31
0.0
  0
LINE
  8
0
 10
444.5
 20
-1016
 30
0.0
 11
444.5
 21
-1047.75
 31
0.0
  0
LINE
  8
0
 10
444.5
 20
-1047.75
 30
0.0
 11
412.75
 21
-1047.75
 31
0.0
  0
LINE
  8
0
 10
412.75
 20
-1047.75
 30
0.0
 11
412.75
 21
-1079.5
 31
0.0
  0
LINE
  8
0
 10
412.75
 20
-1079.5
 30
0.0
 11
381
 21
-1079.5
 31
0.0
  0
LINE
  8
0
 10
381
 20
-1079.5
 30
0.0
 11
381
 21
-1111.25
 31
0.0
  0
LINE
  8
0
 10
381
 20
-1111.25
 30
0.0
 11
349.25
 21
-1111.25
 31
0.0
  0
LINE
  8
0
 10
349.25
 20
-1111.25
 30
0.0
 11
349.25
 21
-1143
 31
0.0
  0
LINE
  8
0
 10
349.25
 20
-1143
 30
0.0
 11
317.5
 21
-1143
 31
0.0
  0
LINE
  8
0
 10
317.5
 20
-1143
 30
0.0
 11
317.5
 21
-1174.75
 31
0.0
  0
LINE
  8
0
 10
317.5
 20
-1174.75
 30
0.0
 11
285.75
 21
-1174.75
 31
0.0
  0
LINE
  8
0
 10
285.75
 20
-1174.75
 30
0.0
 11
285.75
 21
-1206.5
 31
0.0
  0
LINE
  8
0
 10
285.75
 20
-1206.5
 30
0.0
 11
254
 21
-1206.5
 31
0.0
  0
LINE
  8
0
 10
254
 20
-1206.5
 30
0.0
 11
254
 21
-1238.25
 31
0.0
  0
LINE
  8
0
 10
254
 20
-1238.25
 30
0.0
 11
222.25
 21
-1238.25
 31
0.0
  0
LINE
  8
0
 10
222.25
 20
-1238.25
 30
0.0
 11
222.25
 21
-1270
 31
0.0
  0
LINE
  8
0
 10
222.25
 20
-1270
 30
0.0
 11
190.5
 21
-1270
 31
0.0
  0
LINE
  8
0
 10
190.5
 20
-1270
 30
0.0
 11
190.5
 21
-1301.75
 31
0.0
  0
LINE
  8
0
 10
190.5
 20
-1301.75
 30
0.0
 11
158.75
 21
-1301.75
 31
0.0
  0
LINE
  8
0
 10
158.75
 20
-1301.75
 30
0.0
 11
158.75
 21
-1333.5
 31
0.0
  0
LINE
  8
0
 10
158.75
 20
-1333.5
 30
0.0
 11
127
 21
-1333.5
 31
0.0
  0
LINE
  8
0
 10
127
 20
-1333.5
 30
0.0
 11
127
 21
-1365.25
 31
0.0
  0
LINE
  8
0
 10
127
 20
-1365.25
 30
0.0
 11
95.25
 21
-1365.25
 31
0.0
  0
LINE
  8
0
 10
95.25
 20
-1365.25
 30
0.0
 11
95.25
 21
-1397
 31
0.0
  0
LINE
  8
0
 10
95.25
 20
-1397
 30
0.0
 11
63.5
 21
-1397
 31
0.0
  0
LINE
  8
0
 10
63.5
 20
-1397
 30
0.0
 11
63.5
 21
-1428.75
 31
0.0
  0
LINE
  8
0
 10
63.5
 20
-1428.75
 30
0.0
 11
31.75
 21
-1428.75
 31
0.0
  0
LINE
  8
0
 10
31.75
 20
-1428.75
 30
0.0
 11
31.75
 21
-1460.5
 31
0.0
  0
LINE
  8
0
 10
31.75
 20
-1460.5
 30
0.0
 11
0
 21
-1460.5
 31
0.0
  0
LINE
  8
0
 10
0
 20
-1460.5
 30
0.0
 11
0
 21
-1492.25
 31
0.0
  0
CIRCLE
  8
0
 10
1000
 20
7000
 30
0.0
 40
100
  0
CIRCLE
  8
0
 10
2500
 20
8000
 30
0.0
 40
100
  0
CIRCLE
  8
0
 10
4000
 20
7000
 30
0.0
 40
100
  0
CIRCLE
  8
0
 10
100
 20
100
 30
0.0
 40
125
  0
CIRCLE
  8
0
 10
200
 20
200
 30
0.0
 40
200
  0
CIRCLE
  8
0
 10
300
 20
300
 30
0.0
 40
200
  0
CIRCLE
  8
0
 10
350
 20
350
 30
0.0
 40
200
  0
CIRCLE
  8
0
 10
360
 20
360
 30
0.0
 40
200
  0
CIRCLE
  8
0
 10
370
 20
370
 30
0.0
 40
200
  0
ENDSEC
  0
EOF
