  0
SECTION
  2
ENTITIES
  0
ARC
  8
0
 10
-414.4764
 20
790.1023
 30
0.0
 40
415.4284
 50
312.5346
 51
356.1207
  0
LINE
  8
0
 10
-133.6326
 20
483.9856
 30
0.0
 11
-363.1946
 21
278.0039
 31
0.0
  0
ARC
  8
0
 10
-82.35323
 20
-28.11513
 30
0.0
 40
415.4284
 50
132.5341
 51
176.1201
  0
ARC
  8
0
 10
-82.35323
 20
28.10718
 30
0.0
 40
415.4284
 50
183.8801
 51
227.466
  0
LINE
  8
0
 10
-363.1946
 20
-278.012
 30
0.0
 11
-133.6326
 21
-483.9937
 31
0.0
  0
ARC
  8
0
 10
-414.4764
 20
-790.1104
 30
0.0
 40
415.4284
 50
3.879375
 51
47.46547
  0
CIRCLE
  8
0
 10
1000
 20
7000
 30
0.0
 40
100
  0
CIRCLE
  8
0
 10
2500
 20
8000
 30
0.0
 40
100
  0
CIRCLE
  8
0
 10
4000
 20
7000
 30
0.0
 40
100
  0
CIRCLE
  8
0
 10
100
 20
100
 30
0.0
 40
128
  0
CIRCLE
  8
0
 10
200
 20
200
 30
0.0
 40
196
  0
CIRCLE
  8
0
 10
300
 20
300
 30
0.0
 40
175
  0
CIRCLE
  8
0
 10
350
 20
350
 30
0.0
 40
200
  0
CIRCLE
  8
0
 10
360
 20
360
 30
0.0
 40
200
  0
CIRCLE
  8
0
 10
370
 20
370
 30
0.0
 40
200
  0
ENDSEC
  0
EOF
