  0
SECTION
  2
ENTITIES
  0
LINE
  8
0
 10
0
 20
49.72686
 30
0.0
 11
0
 21
0.1968644
 31
0.0
  0
LINE
  8
0
 10
0
 20
0.1968644
 30
0.0
 11
763.0817
 21
0.1968644
 31
0.0
  0
LINE
  8
0
 10
763.0817
 20
0.1968644
 30
0.0
 11
763.0817
 21
-49.33313
 31
0.0
  0
LINE
  8
0
 10
763.0817
 20
-49.33313
 30
0.0
 11
0
 21
-49.33313
 31
0.0
  0
CIRCLE
  8
0
 10
1000
 20
7000
 30
0.0
 40
100
  0
CIRCLE
  8
0
 10
2500
 20
7000
 30
0.0
 40
100
  0
CIRCLE
  8
0
 10
100
 20
100
 30
0.0
 40
130
  0
CIRCLE
  8
0
 10
200
 20
200
 30
0.0
 40
185
  0
CIRCLE
  8
0
 10
300
 20
300
 30
0.0
 40
203
  0
CIRCLE
  8
0
 10
350
 20
350
 30
0.0
 40
208
  0
CIRCLE
  8
0
 10
360
 20
360
 30
0.0
 40
210
  0
CIRCLE
  8
0
 10
370
 20
370
 30
0.0
 40
200
  0
ENDSEC
  0
EOF
