  0
SECTION
  2
ENTITIES
  0
LINE
  8
0
 10
0
 20
360.68
 30
0.0
 11
-254.3569
 21
115.5796
 31
0.0
  0
LINE
  8
0
 10
-254.3569
 20
115.5796
 30
0.0
 11
-254.3569
 21
-1.907349e-06
 31
0.0
  0
LINE
  8
0
 10
-254.3569
 20
-1.907349e-06
 30
0.0
 11
0
 21
245.1004
 31
0.0
  0
LINE
  8
0
 10
0
 20
245.1004
 30
0.0
 11
0
 21
360.68
 31
0.0
  0
LINE
  8
0
 10
0
 20
360.68
 30
0.0
 11
254.3569
 21
115.5796
 31
0.0
  0
LINE
  8
0
 10
254.3569
 20
115.5796
 30
0.0
 11
254.3569
 21
-1.907349e-06
 31
0.0
  0
LINE
  8
0
 10
254.3569
 20
-1.907349e-06
 30
0.0
 11
0
 21
245.1004
 31
0.0
  0
LINE
  8
0
 10
0
 20
245.1004
 30
0.0
 11
254.3569
 21
-1.907349e-06
 31
0.0
  0
LINE
  8
0
 10
254.3569
 20
-1.907349e-06
 30
0.0
 11
0
 21
-245.1004
 31
0.0
  0
LINE
  8
0
 10
0
 20
-245.1004
 30
0.0
 11
253.8764
 21
5.586955
 31
0.0
  0
LINE
  8
0
 10
253.8764
 20
5.586955
 30
0.0
 11
254.3569
 21
-115.5796
 31
0.0
  0
LINE
  8
0
 10
254.3569
 20
-115.5796
 30
0.0
 11
0
 21
-360.68
 31
0.0
  0
LINE
  8
0
 10
0
 20
-360.68
 30
0.0
 11
0
 21
-245.1004
 31
0.0
  0
LINE
  8
0
 10
0
 20
-245.1004
 30
0.0
 11
-254.3569
 21
-1.907349e-06
 31
0.0
  0
LINE
  8
0
 10
-254.3569
 20
-1.907349e-06
 30
0.0
 11
-254.3569
 21
-115.5796
 31
0.0
  0
LINE
  8
0
 10
-254.3569
 20
-115.5796
 30
0.0
 11
0
 21
-360.68
 31
0.0
  0
CIRCLE
  8
0
 10
1000
 20
7000
 30
0.0
 40
100
  0
CIRCLE
  8
0
 10
2000
 20
7000
 30
0.0
 40
100
  0
CIRCLE
  8
0
 10
100
 20
100
 30
0.0
 40
130
  0
CIRCLE
  8
0
 10
200
 20
200
 30
0.0
 40
182
  0
CIRCLE
  8
0
 10
300
 20
300
 30
0.0
 40
197
  0
CIRCLE
  8
0
 10
350
 20
350
 30
0.0
 40
200
  0
CIRCLE
  8
0
 10
360
 20
360
 30
0.0
 40
200
  0
CIRCLE
  8
0
 10
370
 20
370
 30
0.0
 40
200
  0
ENDSEC
  0
EOF
