  0
SECTION
  2
ENTITIES
  0
ARC
  8
0
 10
4724.85
 20
2313.645
 30
0.0
 40
287.2628
 50
250.079
 51
320.4312
  0
ARC
  8
0
 10
4430.988
 20
2045.902
 30
0.0
 40
195.991
 50
231.0004
 51
359.3181
  0
ARC
  8
0
 10
4276.297
 20
1980.49
 30
0.0
 40
92.36868
 50
289.8378
 51
94.13721
  0
ARC
  8
0
 10
4246.421
 20
1945.838
 30
0.0
 40
128.8874
 50
79.62543
 51
207.9369
  0
ARC
  8
0
 10
4451.452
 20
2057.63
 30
0.0
 40
362.4095
 50
208.3651
 51
332.227
  0
LINE
  8
0
 10
4772.106
 20
1888.75
 30
0.0
 11
4878.545
 21
1864.56
 31
0.0
  0
ARC
  8
0
 10
5199.208
 20
1695.689
 30
0.0
 40
362.4095
 50
28.36508
 51
152.227
  0
ARC
  8
0
 10
5404.233
 20
1807.484
 30
0.0
 40
128.8874
 50
259.6254
 51
27.9366
  0
ARC
  8
0
 10
5374.357
 20
1772.832
 30
0.0
 40
92.36868
 50
109.8378
 51
274.1375
  0
ARC
  8
0
 10
5219.671
 20
1707.406
 30
0.0
 40
195.991
 50
51.00044
 51
179.3182
  0
ARC
  8
0
 10
4925.816
 20
1439.674
 30
0.0
 40
287.2628
 50
70.07898
 51
140.4313
  0
ARC
  8
0
 10
4925.816
 20
1805.641
 30
0.0
 40
287.2628
 50
219.5688
 51
289.921
  0
ARC
  8
0
 10
5219.671
 20
1537.898
 30
0.0
 40
195.991
 50
180.6819
 51
308.9996
  0
ARC
  8
0
 10
5374.357
 20
1472.476
 30
0.0
 40
92.36868
 50
85.86278
 51
250.1622
  0
ARC
  8
0
 10
5404.233
 20
1437.824
 30
0.0
 40
128.8874
 50
332.0634
 51
100.3748
  0
ARC
  8
0
 10
5199.208
 20
1549.626
 30
0.0
 40
362.4095
 50
207.7731
 51
331.6349
  0
LINE
  8
0
 10
4878.545
 20
1380.745
 30
0.0
 11
4772.106
 21
1356.555
 31
0.0
  0
ARC
  8
0
 10
4451.452
 20
1187.684
 30
0.0
 40
362.4095
 50
27.77303
 51
151.6349
  0
ARC
  8
0
 10
4246.422
 20
1299.478
 30
0.0
 40
128.8874
 50
152.0634
 51
280.3748
  0
ARC
  8
0
 10
4276.297
 20
1264.825
 30
0.0
 40
92.36868
 50
265.8627
 51
70.16223
  0
ARC
  8
0
 10
4430.988
 20
1199.401
 30
0.0
 40
195.991
 50
.681834
 51
128.9995
  0
ARC
  8
0
 10
4724.85
 20
931.6695
 30
0.0
 40
287.2628
 50
39.56874
 51
109.921
  0
CIRCLE
  8
0
 10
1000
 20
7000
 30
0.0
 40
100
  0
CIRCLE
  8
0
 10
4000
 20
8000
 30
0.0
 40
100
  0
CIRCLE
  8
0
 10
7000
 20
7000
 30
0.0
 40
100
  0
CIRCLE
  8
0
 10
100
 20
100
 30
0.0
 40
125
  0
CIRCLE
  8
0
 10
200
 20
200
 30
0.0
 40
200
  0
CIRCLE
  8
0
 10
300
 20
300
 30
0.0
 40
200
  0
CIRCLE
  8
0
 10
350
 20
350
 30
0.0
 40
200
  0
CIRCLE
  8
0
 10
360
 20
360
 30
0.0
 40
200
  0
CIRCLE
  8
0
 10
370
 20
370
 30
0.0
 40
200
  0
ENDSEC
  0
EOF
