  0
SECTION
  2
ENTITIES
  0
ARC
  8
0
 10
5343.76
 20
2415.747
 30
0.0
 40
493.5955
 50
185.0006
 51
222.0046
  0
LINE
  8
0
 10
4976.973
 20
2085.439
 30
0.0
 11
5141.008
 21
1897.991
 31
0.0
  0
ARC
  8
0
 10
4774.219
 20
1567.684
 30
0.0
 40
493.5955
 50
5.000306
 51
42.00428
  0
ARC
  8
0
 10
4774.219
 20
1653.729
 30
0.0
 40
493.5955
 50
317.9957
 51
354.9997
  0
LINE
  8
0
 10
5140.984
 20
1323.43
 30
0.0
 11
4976.933
 21
1135.996
 31
0.0
  0
ARC
  8
0
 10
5343.693
 20
805.6575
 30
0.0
 40
493.5955
 50
137.9908
 51
174.9947
  0
CIRCLE
  8
0
 10
1000
 20
7000
 30
0.0
 40
100
  0
CIRCLE
  8
0
 10
2000
 20
8000
 30
0.0
 40
100
  0
CIRCLE
  8
0
 10
3000
 20
7000
 30
0.0
 40
100
  0
CIRCLE
  8
0
 10
100
 20
100
 30
0.0
 40
128
  0
CIRCLE
  8
0
 10
200
 20
200
 30
0.0
 40
175
  0
CIRCLE
  8
0
 10
300
 20
300
 30
0.0
 40
168
  0
CIRCLE
  8
0
 10
350
 20
350
 30
0.0
 40
200
  0
CIRCLE
  8
0
 10
360
 20
360
 30
0.0
 40
200
  0
CIRCLE
  8
0
 10
370
 20
370
 30
0.0
 40
200
  0
ENDSEC
  0
EOF
