  0
SECTION
  2
ENTITIES
  0
ARC
  8
0
 10
5476.357
 20
2409.375
 30
0.0
 40
567.558
 50
183.7027
 51
227.3814
  0
ARC
  8
0
 10
4707.754
 20
1574.069
 30
0.0
 40
567.558
 50
3.702727
 51
47.38146
  0
ARC
  8
0
 10
4707.754
 20
1647.375
 30
0.0
 40
567.558
 50
312.6183
 51
356.297
  0
ARC
  8
0
 10
5476.357
 20
812.0686
 30
0.0
 40
567.558
 50
132.6184
 51
176.2972
  0
CIRCLE
  8
0
 10
1000
 20
7000
 30
0.0
 40
100
  0
CIRCLE
  8
0
 10
2000
 20
8000
 30
0.0
 40
100
  0
CIRCLE
  8
0
 10
3000
 20
7000
 30
0.0
 40
100
  0
CIRCLE
  8
0
 10
100
 20
100
 30
0.0
 40
128
  0
CIRCLE
  8
0
 10
200
 20
200
 30
0.0
 40
186
  0
CIRCLE
  8
0
 10
300
 20
300
 30
0.0
 40
177
  0
CIRCLE
  8
0
 10
350
 20
350
 30
0.0
 40
200
  0
CIRCLE
  8
0
 10
360
 20
360
 30
0.0
 40
200
  0
CIRCLE
  8
0
 10
370
 20
370
 30
0.0
 40
200
  0
ENDSEC
  0
EOF
